Oops, an error
Loading. Please wait.

Ceremony Tab

version 1
version 1

Whole song

Interactive

11,674 views 30 this week
9 commentsread comments
1 2 3 4 5
worth learning
x 12
add to favorites
launch autoscroll
font size
0
reset
how to read this tab
guitar tuner
Autoscroll
slow
fast
+/-
esc
set tempo
stop
Help us to improve Ultimate-Guitar.com Take our survey!
×
Joe Satriani: "Ceremony" off Crystal Planet


Key:
^=legato
9(11)=bend note to pitch in parentheses
~=vibrato
ph=pinch harmonic
t=tap


w/ wah
|-----------------------------|----------------------------|
|-----------------------------|----------------------------|
|-----------------------------|---------------------------*|
|-6--------6--------6---6-----|-6--------6----------9--9--*|
|-6^7^6----6^7^6----6^7-6^7---|-6^7^6----6^7^6------6--6---|
|-------^9-------^9-----------|-------^9-------^9---7--7---|

|-------------------------|-----------------------------|
|-------------------------|-----------------------------|
|-------------------------|----------------------------*|
|-------------------------|----------------------------*|
|---------7---------------|----------7------------------|
|-7^9-9-9---9-9-9---7-9-9-|--7-9-9-9---9-9-9--9-7-7-7---|

Fill:
|--12-9--9---9--|--9-9(11)(9)-9-9--|--9-11---------|
|----------13---|------------------|---------------|
|---------------|------------------|---------------|
|---------------|------------------|-------11~~~---|
|---------------|------------------|---------------|
|---------------|------------------|---------------|

Now bass and rhythm guitar pedal C# for a while.

Main melody:
|------------------------------|---------------------------|
|------------------------------|---------------------------|
|-----9-11(13)(11)^9-11-9-6-4--|-----9-11(13)(11)-8(9)^6--*|
|--11--------------------------|--11----------------------*|
|------------------------------|---------------------------|
|------------------------------|---------------------------|

|----------------------------------------------------------|
|----------------------------------------------------------|
|-11(13)-11(13)^9^6^4---11(13)-11(13)^9^6^4--11(13)(11)-11*|
|---------------------------------------------------------*|
|----------------------------------------------------------|
|----------------------------------------------------------|

1st time:
|----9----|
|-12------|
|---------|
|---------|
|---------|
|---------|

2nd time:
|----------|
|-12(14)~~~|
|----------|
|----------|
|----------|
|----------|


Play main melody 1 more time.


Solo:
|-12^11^9^11--12^11^9^11^12^11^9^11/|
|-----------------------------------|
|-----------------------------------|
|-----------------------------------|
|-----------------------------------|
|-----------------------------------|

|12/14~~14^12^11^12^11^12^11^9^11^9^11^9^7^9|
|-------------------------------------------|
|-------------------------------------------|
|-------------------------------------------|
|-------------------------------------------|
|-------------------------------------------|

|-11----------------------|----------------------------------------|
|---9-9(10)(9)(10)(9)(10)-|-10^9^7^9~~~9-12^9--9-------4-----------|
|-------------------------|------------------11-11^8-6--6(7)^4---6-|
|-------------------------|------------------------------------6---|
|-------------------------|----------------------------------------|
|-------------------------|----------------------------------------|

|----------------------------------------------|------------------|
|----------------------------------------------|------------------|
|---4------------------------------------------|---------------8--|
|-6---6^4---------1-4-6-4\2/4-7-9-7^9^7^6-6(7)-|--6-------9^11----|
|---------6^4^2-4------------------------------|-7--^9/11---------|
|----------------------------------------------|------------------|

|-------/9-11/14-14-14^11^14/16-|-14-16/19/21~~~--|
|-7/9-9-------------------------|-----------------|
|-------------------------------|-----------------|
|-------------------------------|-----------------|
|-------------------------------|-----------------|
|-------------------------------|-----------------|

|-12^16^17^16^12^16^17^16^12^16^17^16^12^16^17^16^12^|
|----------------------------------------------------|
|----------------------------------------------------|
|----------------------------------------------------|
|----------------------------------------------------|
|----------------------------------------------------|

|16^17^16^12^16^17^16^12^16^17^16^12^16^17^16^12^-|
|-------------------------------------------------|
|-------------------------------------------------|
|-------------------------------------------------|
|-------------------------------------------------|
|-------------------------------------------------|


|------------------------------------|
|-14^16^14^12^14^16^14^12^14^16^14^12|
|------------------------------------|
|------------------------------------|
|------------------------------------|
|------------------------------------|

|12^16^17^16^12^16^17^16^12^16^17^16^12--|
|----------------------------------------|
|----------------------------------------|
|----------------------------------------|
|----------------------------------------|
|----------------------------------------|

|12^16^17^16^12^16^17^16^12^16^17^16^12--|
|----------------------------------------|
|----------------------------------------|
|----------------------------------------|
|----------------------------------------|
|----------------------------------------|

|-----------------|
|-14(16)^12-9-4-3-|
|-----------------|
|-----------------|
|-----------------|
|-----------------|

|-11^12^11^9----11^12^11^9----11^12^11^9--------------------|
|------------12-------------12-----------12^10^9-6-9--------|
|----------------------------------------------------11(13)-|
|-----------------------------------------------------------|
|-----------------------------------------------------------|
|-----------------------------------------------------------|

|-------------------9^12^9----------9^7---|
|-9----------------9-------9-12(14)-----9-|
|--11(13)--9^11(13)-----------------------|
|--------11-------------------------------|
|-----------------------------------------|
|-----------------------------------------|

|-12-14-7^14-7^14---------------------------|
|------------------9^12^9----------9--------|
|-------------------------11(13)^9---11(13)-|
|----------------------------------11-------|
|-------------------------------------------|
|-------------------------------------------|

|------------------------------------|
|-12---------------------------------|
|----11(13)-11-9-6-9-11-9-6-9-11-12--|
|------------------------------------|
|------------------------------------|
|------------------------------------|

|---------------------------------------------|
|---------------------------------------------|
|-11^9-6-11----9-6-4--------------------------|
|-----------11-------6\4-2-4---2--------------|
|--------------------------------4-4-2(4)~~~--|
|---------------------------------------------|

Suggest correction new What's this?
You can suggest a correction to this tab. Community and Mods will review your correction and vote to approve or reject it.
comments
print report bad tab
9 comments total. Showing first comments.
0 reply
spoongirl 12 wrote on September 1 2004, 12:00 am

what's legato?

0 reply
dime-bag_r.i.p 33 wrote on February 17 2007, 06:32 pm

ya ive only been playing a year so can some 1 tell me what a legato is?

+1 reply
dime-bag_r.i.p 33 wrote on February 18 2007, 04:54 pm

totaly messed up sounds nothing like it

guest
You may want to rate the tab now too:
select rating
Please do not post tabs as comments. Select "correction" instead!