Oops, an error
Loading. Please wait.

Cool 9 Bass Tab

version 1
version 1

Whole song

Interactive

1,635 views 9 this week
no commentswrite comment
1 2 3 4 5
please rate
add to favorites
launch autoscroll
font size
0
reset
guitar tuner
Tab Pro tools
  • play this tab
  • loop segment
  • change instrument
  • show fretboard
  • metronome
Autoscroll
slow
fast
+/-
esc
set tempo
stop
Contributor
Difficulty
intermediate
Song: Cool #9
Artist: Joe Satriani
Album: Joe Satriani
Bassist: Nathan East

/ slide up
\ slide down
~ vibrato
h hammer on
p pull off
x mute

Standard tuning, Fingerstyle with Octave pedal.

[------------------------------------------------------]
[---------------------/4--3----------------------4--5--]
[-3--5-6----3-3-5-6----------3--5-6----3-3-5-6---------]
[------------------------------------------------------]


[------------------------------------------------------]
[---------------------/4--3----------------------------]
[-3--5-6----3-3-5-6----------3--5-6---/--\---15--------]
[------------------------------------------------------]


[------------------------------------------------------]
[---------------------/4--3----------------------4--5--]
[-3--5-6----3-3-5-6----------3--5-6----3-3-5-6---------]
[------------------------------------------------------]

[------------------------------------------3-2-1-0-----]
[---------------------/4--3------------------------4-3-]
[-3--5-6----3-3-5-6----------3--5-6----3-2-------------]
[------------------------------------------------------]

[------------------------------------------------------]
[---------------------/4--3----------------------4--5--]
[-3--5-6----3-3-5-6----------3--5-6----3-3-5-6---------]
[------------------------------------------------------]

[------------------------------------------------------]
[---------------------/4--3----------------------------]
[-3--5-6----3-3-5-6----------3--5-6----6-/-15-\--------]
[------------------------------------------------------]

[------------------------------------------------------]
[---------------------/4--3----------------------4--5--]
[-3--5-6----3-3-5-6----------3--5-6----3-3-5-6---------]
[------------------------------------------------------] 

[------------------------------------------3-2-1-0-----]
[---------------------/4--3------------------------4-3-]
[-3--5-6----3-3-5-6----------3--5-6----3-2-------------]
[------------------------------------------------------]

[------------------------------------------------------]
[---------------------/4--3----------------------4--5--]
[-3--5-6----3-3-5-6----------3--5-6----3-3-5-6---------]
[------------------------------------------------------]

[------------------------------------------------------]
[---------------------/4--3----------------------------]
[-3--5-6----3-3-5-6----------3--5-6----3-3-5-6---/8-9--]
[------------------------------------------------------]

[------------------------------------------------------]
[-10\--------------------------------------------------]
[------------------------------------------------------]
[------------------------------------------------------]

[------------------------------------------------------]
[------------------------------------------------------]
[------------------------------------------------------]
[------------------------------------------------------]

[------------------------------------------------------8h10-]
[---------------------/4--3-----------------------8h10------]
[-3--5-6----3-3-5-6----------3--5-6----3-3-5-6-/8-----------]
[-----------------------------------------------------------]

[------------------------------------------3-2-1-0-----] (due to the mix, i cant make out the
[---------------------/4--3------------------------4-3-]   fill here, its not the same as the
[-----------3-3-5-6----------3--5-6----3-2-------------]    others, just use the one i have)
[-8--10-11\--------------------------------------------]

[------------------------------------------------------]
[---------------------/4--3----------------------4--5--]
[-3--5-6----3-3-5-6----------3--5-6----3-3-5-6---------]
[------------------------------------------------------]

[------------------------------------------------------]
[---------------------/4--3----------------------------]
[-3--5-6----3-3-5-6----------3--5-6----3-3-5-6--8-8-10-]
[------------------------------------------------------]

octave off
[-------------------------------------7--8--10-8--------]
[-10---9--9-8---7---6-------------10--9--8--7--6--------]
[------------------------8-9-10-------------------8--10-]
[-------------------------------------------------------]

Play stocatto					 Let ring
[-------------------------------------------------------------------]
[-----10.-8.-10.-x-8.-10.x-----8.-10.-x-8.-10.------10--------------]
[---------------------------------------------10-11-----------11-10-]
[-8------------------------8----------------------------11/13-------]
                                                  

[----8-------10---------12-----------------------------13-12------]
[---------------------------------------------12-13-15------------]
[------------------------------10--11-----/13-----------------10--]
[-8----8/10-----10/11---------------------------------------------]



octave on
[---------------------------------------------------------17~~~---]
[-/10\------------------------------------------------------------]
[-----------------------------------------------------------------]
[-----------------------------------------------------------------]


[-----------------------------------------------------------------]
[--10\---------------------------(slides on G at random notes)----]
[-----------------------------------------------------------------]
[-----------------------------------------------------------------]


[------------------------------------------------------]
[---------------------/4--3----------------------4--5--]
[-3--5-6----3-3-5-6----------3--5-6----3-3-5-6---------]
[------------------------------------------------------]

[------------------------------------------3-2-1-0-----]
[---------------------/4--3------------------------4-3-]
[-3--5-6----3-3-5-6----------3--5-6----3-2-------------]
[------------------------------------------------------]

[----------------------------------------5---5-----------------]
[---------------------/4--3------------5---5---5---------4--5--]
[-3--5-6----3-3-5-6----------3--5-6--------------3-5-6---------]
[--------------------------------------------------------------]

[--------------------------------------------------------------]
[---------------------/4--3-------------------------8----8-10\-]
[-3--5-6----3-3-5-6----------3--5-6----3-3-5-6--/10---10-------]
[--------------------------------------------------------------]

thats pretty much it, from this point just adlib the main figure until fadeout.
comments
We did not receive enough feedback on this tab! Please rate:
print report bad tab
1 2 3 4 5
I want to post or [tab]
guest
You may want to rate the tab now too:
select rating
Please do not post tabs as comments. Select "correction" instead!