Oops, an error
Loading. Please wait.

Crystal Planet Bass Tab

version 1
version 1

Whole song

Interactive

2,442 views 9 this week
1 commentread comment
1 2 3 4 5
2 more votes to show rating
add to favorites
launch autoscroll
font size
0
reset
guitar tuner
Autoscroll
slow
fast
+/-
esc
set tempo
stop
Help us to improve Ultimate-Guitar.com Take our survey!
×
CRYSTAL PLANET
By Joe Satrini
>From the Album "Crystal Planet" Of 1998




I play it on 4-String Bass Guitar with standard tune.
Here, it is exactly like what you hear.

------------------------------------------------------------------------------------------------------------------
				              CRYSTAL PLANET
						   BY
					       JOE SATRIANI

G ||---------|---------|-----------|-
D ||---7/9---|---------|-----------|-
A ||---------|---------|-----------|-
E ||---------|---5/7---|---7/12\---|-

     Play 2 times
G ||---------------|-------------|-------------|----------------|
D ||---------------|-------------|-------------|-------00-------|
A ||---2-000-2-00--|-2-000-2-00--|-2-000-2-00--|-2-00-----00----|
E ||---------------|-------------|-------------|----------------|


G ||----------
D ||----------
A ||----------
E ||--7/12\---


       Play 4 times				      Play 2 times
G ||---------------|---------------|---------------|---------------||
D ||---------------|---------------|---------------|---------------||
A ||---2-000-2-00--|---------------|---------------|---2-000-2-00--||
E ||---------------|---3-000-3-33--|---0-000-0-00--|---------------||*2



G ||-----------------------|---------------------------|---------------------------|-------------------------|
D ||-----------------------|-2-222-2-22---2-222-2-22-0-|---------------------------|-------------------------|
A ||-333-3-33---3-333-3-33-|---------------------------|-2-222-2-22---2-222-2-22-2-|-------------------------|
E ||-----------------------|---------------------------|---------------------------|-3-333-3-33---3-333-3-33-|



G ||------------|------------|------------|------------|------------|-----------|------------|
D ||------------|------------|------------|------------|------------|-----------|------------|
A ||-2-222-2-22-|-5-555-5-55-|------------|------------|-7-777-7-77-|-5-555--22-|-2-222-2-22-|
E ||------------|------------|-3-333-3-33-|-5-555-5-55-|------------|-----------|------------|


     Play it Slap
G ||----------5--2^4--|
D ||------------------|
A ||--2-2--0----------|
E ||------------------|


  Enter with Drums and Slap the next part
G ||----------------|-5----7---7---7---7-|-
D ||----------------|--------------------|-
A ||---7/12\5-------|----7---7---7---7---|-
E ||----------------|--------------------|-

G ||----------
D ||----------
A ||---12\7---
E ||----------


    Play 8 times
G ||-----------------------------------|-
D ||-----------------------------------|-
A ||--7-777-7---10-10---7-777-7---5-5--|-
E ||-----------------------------------|-


    Play 4 times         Play 2 times
G ||-----------------|-----------------------------------|------------
D ||-----------------|-----------------------------------|------------
A ||--2-222-2---3-3--|--7-777-7---10-10---7-777-7---2-2--|---(2)------
E ||-----------------|-----------------------------------|------------



G ||-------------|---------------|------------
D ||-------------|-----7---5-----|------------
A ||---2---------|---7---7---0---|---(0)------
E ||-------------|---------------|------------



G ||-----------------------|---------------------------|---------------------------|-------------------------|
D ||-----------------------|-2-222-2-22---2-222-2-22-0-|---------------------------|-------------------------|
A ||-333-3-33---3-333-3-33-|---------------------------|-2-222-2-22---2-222-2-22-2-|-------------------------|
E ||-----------------------|---------------------------|---------------------------|-3-333-3-33---3-333-3-33-|



G ||------------|------------|------------|------------|------------|-----------|------------|------------|-----------|------------|
D ||------------|------------|------------|------------|------------|-----------|------------|------------|-----------|------------|
A ||-2-222-2-22-|-5-555-5-55-|------------|------------|-7-777-7-77-|-5-555--22-|-2-222-2-22-|-2-222-2-22-|-5-555--22-|-2-222-2-22-|
E ||------------|------------|-3-333-3-33-|-5-555-5-55-|------------|-----------|------------|------------|-----------|------------|


    With Drums
G ||---------------
D ||---------------
A ||---0-0--2------
E ||---------------


G ||------------------|--17--16--14------------------------|-
D ||------------------|-------------17--16--14-------------|-
A ||---12/14---12/14--|------------------------17--15--14--|-
E ||------------------|------------------------------------|-


G ||----------------------------------||-
D ||----------------------------------||-
A ||---2-222-2--5-5----2-222-2--0-0---||-
E ||----------------------------------||-
		     Play till the end

G ||-------||
D ||-------||
A ||---2---||
E ||-------||


I like this very cut very much, I enjoy playing it to the maximum and I hope 
you'll do too.

Tabed By HAZEM AMMARI - Bassist of HeavyMetal Band "Black Coffin"
For any questions or recommendations please E-mail me at 
haz_met@hotmail.com
Suggest correction
Give kudos to tab author, rate the tab!
1 2 3 4 5
comments
print report bad tab
1 comment total.
0 reply
fenderman0100 50 Jan 15, 2006 01:51 PM

good work man u done i am proud of u

guest
You may want to rate the tab now too:
select rating
Wanna post a correction for this tab? Suggest correction