Oops, an error
Loading. Please wait.

Crystal Planet Bass Tab

version 1
version 1

Intro

Whole song

Interactive

585 views 1 this week
1 commentread comment
1 2 3 4 5
3 more votes to show rating
add to favorites
launch autoscroll
font size
0
reset
guitar tuner
Autoscroll
slow
fast
+/-
esc
set tempo
stop
Help us to improve Ultimate-Guitar.com Take our survey!
×
Author
-------------------------------------------------------------------------------
		    Crystal Planet - Joe Satriani
-------------------------------------------------------------------------------

Tabbed By :XNem07

Tuning:Standard

G|---------------------------------------------------------------------------|
D|---------------------------------------------------------------------------|
A|--------------------------5----9h10p9--------------------------------------|
E|-0--------0-2-3----5-7-8--------------10-8----8-7--7/0---------------------|

G|-4/9--12-------------------------------------------------------------------|
D|---------10--10p9----------------------------------------------------------|
A|------------------10p9-----------------------------------------------------|
E|------------------------10p8--7h8p7----------------------------------------|

G|---------------------------------------------------------------------------|
D|------------------------4--------------------------------------------------|
A|------------23333222225----------------------------------------------------|
E|-0000000303----------------------------------------------------------------|

Suggest correction
Give kudos to tab author, rate the tab!
1 2 3 4 5
comments
print report bad tab
1 comment total.
0 reply
Novellus40 10 Feb 06, 2013 03:34 PM

This specific tab piece might be misleading to people. They will think they are getting the intro to the song Crystal Planet. When in fact it is the opening bass lines for the song Lights Of Heaven. Which is on the Crystal Planet album.

guest
You may want to rate the tab now too:
select rating
Wanna post a correction for this tab? Suggest correction