Oops, an error
Loading. Please wait.

Day At The Beach Bass Tab

version 1
version 1

Whole song

Interactive

1,227 views 1 this week
no commentswrite comment
1 2 3 4 5
excellent!
x 2
add to favorites
launch autoscroll
font size
0
reset
guitar tuner
Tab Pro tools
  • play this tab
  • loop segment
  • change instrument
  • show fretboard
  • metronome
Autoscroll
slow
fast
+/-
esc
set tempo
stop
Contributor
Difficulty
advanced
                 DAY AT THE BEACH(NEW RAYS FROM AN ANCIENT SUN)
                           As recorded by Joe Satriani
                  (From the 1989 Album FLYING IN A BLUE DREAM)

Transcribed by Trav                                       
Transcribed Onto Bass by Milo

  This song is all tapping, so if you don't know how to tap, DO NOT START WITH THIS.
Find Ian's bass tapping articles first.  This is an advanced song, so if you're just
starting out on bass, do NOT play this.

    Q=100
    S S  S S S  S S S  S S S  S S S  E   S S  S S S  S S S  S S S  S S S  E
||------18-----16-----14-----16-----18-|-----18-----16-----14-----16-----14--|
||o---7-19---7-16---7-14---7-16---7-19-|---7-19---7-16---7-14---7-16---9-14--|
||o------------------------------------|-------------------------------------|
||--5------5------5------5------5------|-5------5------5------5------9-------|

  S  S  S S  S  S S  S  S S  S  S S  S  E   S  S  S S  S  S S  S  S S  S  S S S  E
|---11-18---11-16---11-14---11-16---11-18-|---11-18---11-16---11-14---11-14---9-14--||
|------19------16------14------16------19-|------19------16------14------14-----14-o||
|-9-------9-------9-------9-------9-------|-9-------9-------9-------9-------7------o||
|-----------------------------------------|-----------------------------------------||

  S S  S S S  S S S  S S S  S S S  E   S S  S S S  S S S  S S S  S S S  E
|---7-18---7-16---7-18---7-21---7-18-|---9-23---9-23---9-21---9-21---9-21-|
|-----19-----16-----19-----21-----19-|-----23-----23-----21-----21-----21-|
|-5------5------5------5------5------|-7------7------7------7------7------|
|------------------------------------|------------------------------------|

                                                     Q=90
  S S  S S S  S S S  S S S  S S S  E   S S  S S S  S S S  S S S  S S S  E
|---7-21---7-18---7-16---7-18---7-21-|---9-14---9-14---9-16---9-16---9-16-|
|-----21-----19-----16-----19-----21-|-----16-----16-----18-----18-----18-|
|-5------5------5------5------5------|-7------7------7------7------7------|
|------------------------------------|------------------------------------|

              Q=112
   +H.       S S  S S S  S S S  S S S  S S S  E   S S  S S S  S S S  S S S  S S S  E
|-(16)-----|-----14-----14-----16-----16-----18-|-----11-----11-----12-----12-----12-|
|-(18)-----|---7-14---7-14---7------7------7----|---5-11---5-11---5-12---5-12---5-12-|
|----------|-------------------17-----17-----19-|------------------------------------|
|----------|-5------5------5------5------5------|-3------3------3------3------3------|

  S S  S S S  S S S  S S S  S S S  E   S S  S S S  S S S  S S S  S S S  E
|-----14-----14-----16-----16-----14-|-----11-----11-----12-----12-----12-|
|---7-14---7-14---7------7------7-14-|---5-11---5-11-----12-----12-----12-|
|-------------------17-----17--------|-----------------7------7------7----|
|-5------5------5------5------5------|-3------3------7------7------7------|

  S S  S S S  S S S  S S S  S S S  E   S S  S S S  S S S  S S S  S S S  E
|-----14-----14-----16-----16-----18-|-----11-----11-----12-----12-----12-|
|---7-14---7-14---7------7------7----|---5-11---5-11-----12-----12-----12-|
|-------------------17-----17-----19-|-----------------7------7------7----|
|-5------5------5------5------5------|-3------3------7------7------7------|

  S S  S S S  S S S  S S S  S S S  E   S S  S S S  S S S  S S S  S S S  E
|-----12-----14-----17-----19-----14-|-----17-----17-----14-----14-----14-|
|-----12-----14-----17-----19-----14-|-----17-----17-----14-----14-----14-|
|---8------8------8------8------8----|---8------8------8------8------8----|
|-8------8------8------8------8------|-8------8------8------8------8------|
  S S  S S S  S S S  S S S  S S S  E   S S  S S S  S S S  S S S  S S S  E
|-----21-----21-----19-----19-----19-|-----18-----18-----16-----16-----16-|
|---5-22---5-22---5-21---5-21---5-21-|-----19-----19-----18-----18-----18-|
|------------------------------------|---7------7------7------7------7----|
|-3------3------3------3------3------|-7------7------7------7------7------|

                                                     Q=90
  S S  S S S  S S S  S S S  S S S  E   S S  S S S  S S S  S S S  S S S  E
|-----21-----21-----19-----19-----19-|---9-18---9-18---9-16---9-16---9-14-|
|---5-22---5-22---5-21---5-21---5-21-|-----19-----19-----18-----18-----15-|
|------------------------------------|-7------7------7------7------7------|
|-3------3------3------3------3------|------------------------------------|

             Q=134
   +H.       S S  S S S  S S S  S S S  S S S  E   S S  S S S  S S S  S S S  S S S  E 
|-(14)---||------18-----16-----14-----16-----18-|-----18-----16-----14-----16-----14-|
|-(15)---||o---7-19---7-16---7-14---7-16---7-19-|---7-19---7-16---7-14---7-16---9-14-|
|--------||o------------------------------------|------------------------------------|
|--------||--5------5------5------5------5------|-5------5------5------5------9------|

  S  S  S S  S  S S  S  S S  S  S S  S  E   S  S  S S  S  S S  S  S S  S  S S S  E
|---11-18---11-16---11-14---11-16---11-18-|---11-18---11-16---11-14---11-14---9-14--||
|------19------16------14------16------19-|------19------16------14------14-----14-o||
|-9-------9-------9-------9-------9-------|-9-------9-------9-------9-------7------o||
|-----------------------------------------|-----------------------------------------||

  S S  S S S  S S S  S S S  S S S  E   S S  S S S  S S S  S S S  S S S  E
|---7-18---7-16---7-18---7-21---7-18-|---9-23---9-23---9-21---9-21---9-21-|
|-----19-----16-----19-----21-----19-|-----23-----23-----21-----21-----21-|
|-5------5------5------5------5------|-7------7------7------7------7------|
|------------------------------------|------------------------------------|

  S S  S S S  S S S  S S S  S S S  E   S S  S S S  S S S  S S S  S S S  E
|---7-21---7-18---7-16---7-18---7-21-|---9-14---9-14---9-16---9-16---9-16-|
|-----21-----19-----16-----19-----21-|-----16-----16-----18-----18-----18-|
|-5------5------5------5------5------|-7------7------7------7------7------|
|------------------------------------|------------------------------------|

  S  S  S S  S  S S  S  S S  S  S S  S  E   S  S  S S  S  S S  S  S S  S  S S  S  E
|---11-21---11-21---11-21---11-21---11-21-|---11-20---11-20---11-20---11-20---11-20-|
|------19------19------19------19------19-|------21------21------21------21------21-|
|-9-------9-------9-------9-------9-------|-9-------9-------9-------9-------9-------|
|-----------------------------------------|-----------------------------------------|

  S  S  S S  S  S S  S  S S  S  S S  S  E   S  S  S S  S  S S  S  S S  S  S S S  E 
|---11-14---11-14---11-16---11-16---11-16-|---11------11------11------11------9-14-|
|------14------14------16------16------16-|------16------16------16------16-----14-|
|-9-------9-------9-------9-------9-------|-9-------9-------9-------9-------7------|
|-----------------------------------------|----------------------------------------|
                                            rit.
        Q=122
  +H.   S S  S S S  S S S  S S S  S S S  E  S S  S S S  S  S  S  S  S  S  S  S  S  E
|(14)--|----18-----16-----14-----16-----18-|-----18-----16-------14-------14-------14-|
|(14)--|--7-19---7-16---7-14---7-16---7-19-|---5-19---5-16-------14-------14-------14-|
|------|-----------------------------------|------------------12-------12-------12----|
|------|5------5------5------5------5------|-3------3------10-------10-------10-------|

  S S  S S S  S S S  S S S  S S S  E   S S  S S S  S  S  S  S  S  S  S  S  S  E
|-----18-----16-----14-----16-----18-|-----18-----16-------14-------------------|
|---7-19---7-16---7-14---7-16---7-19-|---5-19---5-16-------14-------14-------16-|
|------------------------------------|------------------12-------12-14----12-16-|
|-5------5------5------5------5------|-3------3------10-------10-------10-------|
  S S  S S S  S S S  S S S  S S S  E   S S  S S S  S  S  S  S  S  S  S  S  S  E
|-----18-----16-----14-----16-----18-|-----18-----16-------14-------14-------14-|
|---7-19---7-16---7-14---7-16---7-19-|---5-19---5-16-------14-------14-------14-|
|------------------------------------|------------------12-------12-------12----|
|-5------5------5------5------5------|-3------3------10-------10-------10-------|

  S S  S S S  S S S  S S S  S S S  E   S S  S S S  S S S  S S S  S S S  E
|-----14-----14-----14-----14-----14-|-----13-----13-----13-----13-----13-|
|---9-14---9-14---9-14---9-14---9-14-|---9-14---9-14---9-14---9-14---9-14-|
|-7------7------7------7------7------|-7------7------7------7------7------|
|------------------------------------|------------------------------------|

  S S  S S S  S S S  S S S  S S S  E   S S  S S S  S S S  S S S  S S S  E
|-----19-----19-----19-----19-----19-|-----18-----18-----18-----18-----18-|
|---5-19---5-19---5-19---5-19---5-19-|---5-19---5-19---5-19---5-19---5-19-|
|------------------------------------|------------------------------------|
|-3------3------3------3------3------|-3------3------3------3------3------|

  S S  S S S  S S S  S S S  S S S  E   S S  S S S  S S S  S S S  S S S  E
|-----16-----16-----16-----16-----16-|-----14-----14-----14-----14-----14-|
|---5-16---5-16---5-16---5-16---5-16-|---7-14---7-14---7-14---7-14---7-14-|
|------------------------------------|------------------------------------|
|-3------3------3------3------3------|-5------5------5------5------5------|

  S S  S S S  S S S  S S S  S S S  E   S S  S S S  S S S  S S S  S S S  E
|-----19-----19-----19-----19-----19-|-----14-----14-----14-----14-----14-|
|---5-19---5-19---5-19---5-19---5-19-|---7-14---7-14---7-14---7-14---7-14-|
|------------------------------------|------------------------------------|
|-3------3------3------3------3------|-5------5------5------5------5------|

  S S  S S S  S S S  S S S  S S S  E   S S  S S S  S S S  S S S  S E E
|-----16-----16-----16-----16-----16-|-----14-----14-----14-----14------*|
|---5-16---5-16---5-16---5-16---5-16-|---7-14---7-14---7-14---7-14------*|
|------------------------------------|----------------------------------*|
|-3------3------3------3------3------|-5------5------5------5------5----*|
comments
We did not receive enough feedback on this tab! Please rate:
print report bad tab
1 2 3 4 5
I want to post or [tab]
guest
You may want to rate the tab now too:
select rating
Please do not post tabs as comments. Select "correction" instead!