Oops, an error
Loading. Please wait.

Day At The Beach New Rays From An Ancient Sun Tab

version 1
version 1

Whole song

Interactive

25,573 views 48 this week
7 commentsread comments
1 2 3 4 5
x 17
add to favorites
launch autoscroll
font size
0
reset
how to read this tab
guitar tuner
Autoscroll
slow
fast
+/-
esc
set tempo
stop
Help us to improve Ultimate-Guitar.com Take our survey!
×
Hi, here is Joe Satriani's 'Day At The Beach (New Rays From An Ancient Sun)'.

        t  t  T   t  t  T   t  t  T   t  t  T   t  t  T
e|||----------------------------------------------------------|
B|||-*--------14--------------------------------------14------|
G|||-------6--14-----6--16-----6--14-----6--16-----6--14------|
D|||-*-----7---------7--16-----7--14-----7--16-----7----------|
A|||----------------------------------------------------------|
E|||----5---------5---------5---------5---------5-------------|

  use same tapping pattern for the rest of the song
e|--------------------------------------------------------|
B|--------14----------------------------------------------|
G|-----6--14-----6--16-----6--14-----6--14-----9--14------|
D|-----7---------7--16-----7--14-----7--14-----9--14------|
A|--------------------------------------------------------|
E|--5---------5---------5---------5---------9-------------|

e|-------------------------------------------------------------|
B|-----10--14-----10---------10---------10---------10--14------|
G|-----11--14-----11--16-----11--14-----11--16-----11--14------|
D|--------------------16---------14---------16-----------------|
A|--9----------9----------9----------9----------9--------------|
E|-------------------------------------------------------------|

e|--------------------------------------------------------------||
B|-----10--14-----10---------10---------10---------9----------*-||
G|-----11--14-----11--16-----11--14-----11--14-----9--14--------||
D|--------------------16---------14---------14--------14------*-||
A|--9----------9----------9----------9----------7---------------||
E|--------------------------------------------------------------||

e|--------------------------------------12----------------|
B|-----7--14-----7---------7--14-----7--12-----7--14------|
G|-----7--14-----7--16-----7--14-----7---------7--14------|
D|------------------16------------------------------------|
A|--5---------5---------5---------5---------5-------------|
E|--------------------------------------------------------|


e|--------14--------14--------12-------12--------12------|
B|-----9--14-----9--14-----9--12----9--12-----9--12------|
G|-----9---------9---------9--------9---------9----------|
D|-------------------------------------------------------|
A|--7---------7---------7---------7--------7-------------|
E|-------------------------------------------------------|

e|--------12--------------------------------------12------|
B|-----7--12-----7--14-----7---------7--14-----7--12------|
G|-----7---------7--14-----7--16-----7--14-----7----------|
D|----------------------------16--------------------------|
A|--5---------5---------5---------5---------5-------------|
E|--------------------------------------------------------|

e|--------14--------14--------16--------16--------16------||
B|-----9--14-----9--14-----9---------9---------9----------||
G|-----9---------9---------9--16-----9--16-----9--16------||
D|--------------------------------------------------------||
A|--7---------7---------7---------7---------7-------------||
E|--------------------------------------------------------||

e|----------17----------17----------19----------19----------21------|
B|------14--17------14--17------14----------14----------14----------|
G|------14----------14----------14--19------14--19------14--21------|
D|------------------------------------------------------------------|
A|--12----------12----------12----------12----------12--------------|
E|------------------------------------------------------------------|

e|----------14----------14--------15--------15--------15------|
B|------12--14------12--14-----8--15-----8--15-----8--15------|
G|------12----------12---------9---------9---------9----------|
D|------------------------------------------------------------|
A|--10----------10----------7---------7---------7-------------|
E|------------------------------------------------------------|

e|----------17----------17----------19----------19----------17------|
B|------14--17------14--17------14----------14----------14--17------|
G|------14----------14----------14--19------14--19------14----------|
D|------------------------------------------------------------------|
A|--12----------12----------12----------12----------12--------------|
E|------------------------------------------------------------------|

e|----------14----------14--------15--------15--------15------|
B|------12--14------12--14-----8--15-----8--15-----8--15------|
G|------12----------12---------9---------9---------9----------|
D|------------------------------------------------------------|
A|--10----------10----------7---------7---------7-------------|
E|------------------------------------------------------------|

e|----------17----------17----------19----------19----------21------|
B|------14--17------14--17------14----------14----------14----------|
G|------14----------14----------14--19------14--19------14--21------|
D|------------------------------------------------------------------|
A|--12----------12----------12----------12----------12--------------|
E|------------------------------------------------------------------|

e|----------14----------14--------15--------15--------15------|
B|------12--14------12--14-----8--15-----8--15-----8--15------|
G|------12----------12---------9---------9---------9----------|
D|------------------------------------------------------------|
A|--10----------10----------7---------7---------7-------------|
E|------------------------------------------------------------|

e|---------15---------17---------20---------22---------17------|
B|-----10--15-----10--17-----10--20-----10--22-----10--17------|
G|-----9----------9----------9----------9----------9-----------|
D|-------------------------------------------------------------|
A|--8----------8----------8----------8----------8--------------|
E|-------------------------------------------------------------|


e|---------20---------20---------17---------17---------17------|
B|-----10--20-----10--20-----10--17-----10--17-----10--17------|
G|-----9----------9----------9----------9----------9-----------|
D|-------------------------------------------------------------|
A|--8----------8----------8----------8----------8--------------|
E|-------------------------------------------------------------|

e|------------------------------------------------------------------|
B|------12--17------12--17------12--15------12--15------12--15------|
G|------12--17------12--17------12--16------12--16------12--16------|
D|------------------------------------------------------------------|
A|--10----------10----------10----------10----------10--------------|
E|------------------------------------------------------------------|

e|--------------------------------------------------------|
B|-----9--14-----9--14-----9--12-----9--12-----9--12------|
G|-----9--14-----9--14-----9--13-----9--13-----9--13------|
D|--------------------------------------------------------|
A|--7---------7---------7---------7---------7-------------|
E|--------------------------------------------------------|

e|------------------------------------------------------------------|
B|------12--17------12--17------12--15------12--15------12--15------|
G|------12--17------12--17------12--16------12--16------12--16------|
D|------------------------------------------------------------------|
A|--10----------10----------10----------10----------10--------------|
E|------------------------------------------------------------------|

e|--------------------------------------------------------||
B|-----9--14-----9--14-----9--12-----9--12-----9--12------||
G|-----9--14-----9--14-----9--13-----9--13-----9--13------||
D|--------------------------------------------------------||
A|--7---------7---------7---------7---------7-------------||
E|--------------------------------------------------------||

e|----------------------------------------------------------|
B|-*--------14--------------------------------------14------|
G|-------6--14-----6--16-----6--14-----6--16-----6--14------|
D|-*-----7---------7--16-----7--14-----7--16-----7----------|
A|----------------------------------------------------------|
E|----5---------5---------5---------5---------5-------------|

e|--------------------------------------------------------|
B|--------14--------16------------------------------------|
G|-----6--14-----6--16-----6--14-----6--14-----9--14------|
D|-----7---------7---------7--14-----7--14-----9--14------|
A|--------------------------------------------------------|
E|--5---------5---------5---------5---------9-------------|

e|-------------------------------------------------------------|
B|-----10--14-----10---------10---------10---------10--14------|
G|-----11--14-----11--16-----11--14-----11--16-----11--14------|
D|--------------------16---------14---------16-----------------|
A|--9----------9----------9----------9----------9--------------|
E|-------------------------------------------------------------|

e|--------------------------------------------------------------||
B|-----10--14-----10---------10---------10---------9----------*-||
G|-----11--14-----11--16-----11--14-----11--14-----9--14--------||
D|--------------------16---------14---------14--------14------*-||
A|--9----------9----------9----------9----------7---------------||
E|--------------------------------------------------------------||

e|--------------------------------------12----------------|
B|-----7--14-----7---------7--14-----7--12-----7--14------|
G|-----7--14-----7--16-----7--14-----7---------7--14------|
D|------------------16------------------------------------|
A|--5---------5---------5---------5---------5-------------|
E|--------------------------------------------------------|

e|--------14--------14--------12--------12--------12------|
B|-----9--14-----9--14-----9--12-----9--12-----9--12------|
G|-----9---------9---------9---------9---------9----------|
D|--------------------------------------------------------|
A|--7---------7---------7---------7---------7-------------|
E|--------------------------------------------------------|

e|--------12--------------------------------------12------|
B|-----7--12-----7--14-----7---------7--14-----7--12------|
G|-----7---------7--14-----7--16-----7--14-----7----------|
D|----------------------------16--------------------------|
A|--5---------5---------5---------5---------5-------------|
E|--------------------------------------------------------|

e|--------14--------14--------16--------16--------16------|
B|-----9--14-----9--14-----9---------9---------9----------|
G|-----9---------9---------9--16-----9--16-----9--16------|
D|--------------------------------------------------------|
A|--7---------7---------7---------7---------7-------------|
E|--------------------------------------------------------|

e|---------17---------17---------17---------17---------14------|
B|-----10--17-----10--17-----10--17-----10--17-----10--14------|
G|-----11---------11---------11---------11---------11----------|
D|-------------------------------------------------------------|
A|--9----------9----------9----------9----------9--------------|
E|-------------------------------------------------------------|

e|-----------------------------------------------------12------|
B|-----10--16-----10--16-----10--16-----10--16-----10--12------|
G|-----11--16-----11--16-----11--16-----11--16-----11----------|
D|-------------------------------------------------------------|
A|--9----------9----------9----------9----------9--------------|
E|-------------------------------------------------------------|

e|--------------------------------------------------------------|
B|-----10---------10---------10---------10---------10-----------|
G|-----11--14-----11--14-----11--16-----11--16-----11--16-------|
D|---------14---------14---------16---------16---------16-------|
A|--9----------9----------9----------9----------9---------------|
E|--------------------------------------------------------------|

e|------------------------------------------------------------||
B|-------------------------------------------------9----------||
G|-----11---------11---------11---------11---------9--14------||
D|---------16---------16---------16---------16--------14------||
A|--9----------9----------9----------9----------7-------------||
E|------------------------------------------------------------||

e|--------------------------------------------------------|
B|--------14--------------------------------------14------|
G|-----6--14-----6--16-----6--14-----6--16-----6--14------|
D|-----7---------7--16-----7--14-----7--16-----7----------|
A|--------------------------------------------------------|
E|--5---------5---------5---------5---------5-------------|

e|--------------------------------------------------------------|
B|--------14----------------------------------------------------|
G|-----4--14-----4--16------11--14------11--14------11--14------|
D|-----5---------5--16----------14----------14----------14------|
A|--------------------------12----------12----------12----------|
E|--3---------3---------10----------10----------10--------------|

e|--------------------------------------------------------|
B|--------14----------------------------------------------|
G|-----6--14-----6--16-----6--14-----6--16-----6--14------|
D|-----7---------7--16-----7--14-----7--16-----7--14------|
A|--------------------------------------------------------|
E|--5---------5---------5---------5---------5-------------|

e|--------------------------------------------------------------|
B|--------14----------------------------------------------------|
G|-----4--14-----4--16------11--14------11----------11----------|
D|-----5---------5--16----------14----------14----------16------|
A|--------------------------12----------12--14------12--16------|
E|--3---------3---------10----------10----------10--------------|

e|--------------------------------------------------------|
B|--------14--------------------------------------14------|
G|-----6--14-----6--16-----6--14-----6--16-----6--14------|
D|-----7---------7--16-----7--14-----7--16-----7----------|
A|--------------------------------------------------------|
E|--5---------5---------5---------5---------5-------------|

e|--------------------------------------------------------------|
B|--------14----------------------------------------------------|
G|-----4--14-----4--16------11--14------11--14------11--14------|
D|-----5---------5--16----------14----------14----------14------|
A|--------------------------12----------12----------12----------|
E|--3---------3---------10----------10----------10--------------|

e|--------------------------------------------------------|
B|--------------------------------------------------------|
G|-----9--14-----9--14-----9--14-----9--14-----9--14------|
D|-----9--14-----9--14-----9--14-----9--14-----9--14------|
A|--7---------7---------7---------7---------7-------------|
E|--------------------------------------------------------|

e|--------------------------------------------------------|
B|--------------------------------------------------------|
G|-----9--13-----9--13-----9--13-----9--13-----9--13------|
D|-----9--14-----9--14-----9--14-----9--14-----9--14------|
A|--7---------7---------7---------7---------7-------------|
E|--------------------------------------------------------|

e|----------------------------------------------------------|
B|-*--------15--------15--------15--------15--------15------|
G|-------4--14-----4--14-----4--14-----4--14-----4--14------|
D|-*-----5---------5---------5---------5---------5----------|
A|----------------------------------------------------------|
E|----3---------3---------3---------3---------3-------------|

e|--------------------------------------------------------|
B|--------14--------14--------14--------14--------14------|
G|-----6--14-----6--14-----6--14-----6--14-----6--14------|
D|-----7---------7---------7---------7---------7----------|
A|--------------------------------------------------------|
E|--5---------5---------5---------5---------5-------------|

e|--------------------------------------------------------|
B|-----3---------3---------3---------3---------3----------|
G|-----4--16-----4--16-----4--16-----4--16-----4--16------|
D|--------16--------16--------16--------16--------16------|
A|--------------------------------------------------------|
E|--3---------3---------3---------3---------3-------------|

e|---------------------------------------------------||
B|-------------------------------------------------*-||
G|-----6--14-----6--14-----6--14-----6--14-----------||
D|-----7--14-----7--14-----7--14-----7--14---------*-||
A|---------------------------------------------------||
E|--5---------5---------5---------5---------5--------||
Suggest correction
comments
print report bad tab
7 comments total. Showing first comments.
0 reply
whatson 10 Dec 12, 2001 12:00 AM

This is the real tab, I've seen it in one of them tab books the same way

0 reply
raginmetallicat 0 Apr 14, 2002 12:00 AM

Err......i'd second that 8-)

0 reply
paulson 515 Jun 14, 2004 12:00 AM

lol someone used a tabbook
lol i dont care, its correct anyway. nice one

guest
You may want to rate the tab now too:
select rating
Wanna post a correction for this tab? Suggest correction