Oops, an error
Loading. Please wait.

Dweller On The Threshold Tab

385 views 3 this week
no commentswrite comment
1 2 3 4 5
3 more votes to show rating
add to favorites
launch autoscroll
font size
0
reset
how to read this tab
guitar tuner
Autoscroll
slow
fast
+/-
esc
set tempo
stop
Help us to improve Ultimate-Guitar.com Take our survey!
×
Author
-------------------------------------------------------------------------------
                             Dweller On The Threshold - Joe Satriani
-------------------------------------------------------------------------------
Tabbed by: Will Long
Email: wlong3000@yahoo.com

Tuning:

e|----------------------------------/7~-6~-7~/10-9-7-6~--7~-6~-7-9-10~-9~----|
B|------------------------------------------------------8--------------------|
G|---------------------------------------------------------------------------|
D|---9~-8~-9~-8~-9~-8-9-11-12~-11~-------------------------------------------|
A|---------------------------------------------------------------------------|
E|---------------------------------------------------------------------------|
    [                              let ring                                 ]
e|-----------9~-----10~-----12~-----13~-----15~----16~----18~-----19~----21~-|
B|-------8-------8b9----10b11--11b12---13b14---14b15-16b17---17b18---19b20---|
G|---6b7---------------------------------------------------------------------|
D|---------------------------------------------------------------------------|
A|---------------------------------------------------------------------------|
E|---------------------------------------------------------------------------|
    [      let ring     ]  [                  play 2x                       ]
e|----------21~-----21~\-----------------------------------------------------|
B|---19b20----19b20----------------------------------------------------------|
G|--------------------------9~-6~--9~-11--9--6~-9~-6~--7--9--11~--14~--9~-12~|
D|--------------------------9~-8~--9~--------8~-9~-8~------------------------|
A|---------------------------------------------------------------------------|
E|---------------------------------------------------------------------------|
    [                              let ring                                ]
e|---------9~-----10~-----12~------13~-----15~------16~-----18~-----19~------|
B|------8-----8b9-----10b11---11b12---13b14---14b15----16b17---17b18---------|
G|---6b7---------------------------------------------------------------------|
D|---------------------------------------------------------------------------|
A|---------------------------------------------------------------------------|
E|---------------------------------------------------------------------------|
   [             let ring           ]
e|--------21~------21~--------21~\-------------------------------------------|
B|--19b20---19b20-----19b20--------------------------------------------------|
G|---------------------------------------------------------------------------|
D|---------------------------------------------------------------------------|
A|---------------------------------------------------------------------------|
E|---------------------------------------------------------------------------|



************************************

| /   slide up
| \   slide down
| h   hammer-on
| p   pull-off
| ~   vibrato
| +   harmonic
| x   Mute note
| b   Bend
| pb  Pre-bend
| br  Bend release
| pbr Pre-bend release
| brb Bend release bend

************************************
Suggest correction
Give kudos to tab author, rate the tab!
1 2 3 4 5
comments
print report bad tab
guest
You may want to rate the tab now too:
select rating
Wanna post a correction for this tab? Suggest correction