Oops, an error
Loading. Please wait.

Echo Bass Tab

version 2
version 2

Whole song

Interactive

730 views 6 this week
no commentswrite comment
1 2 3 4 5
please rate
add to favorites
launch autoscroll
font size
0
reset
guitar tuner
Autoscroll
slow
fast
+/-
esc
set tempo
stop
Help us to improve Ultimate-Guitar.com Take our survey!
×
Author
Difficulty
intermediate
                                    Echo
                                Joe Satriani

                                                                    
Disclaimer: This bass tab is pretty much what Joe actually plays. I have broken 
down the song by section and
            pretty much have hit each note where it belongs along with the subtle 
variations found in the song.
            
Verse 1 (Play this four times)

G|-------------------------------------------------|
D|------------4---------------------4--------------|
A|----------5---7--7--------------5---7--7---------|
E|--0--0------------------0--0---------------------|

G|-------------------------------------------------|
D|-------------------------------------------------|
A|--3--3----2-5-3--3------3--3----2-5-3--3---------|
E|---------------------------------------------3-2-|


Chorus (These repeated notes aren't the actual count, just hang around while it feels good)
G|-------------------------------------------------|
D|------------4------------------------------------|
A|----------5---7--7-------0-0-0-0-0-0-0-0-0-0-0-0-|
E|--0--0-------------------------------------------|

G|-------------------------------------------------|
D|-------------------------------------------------|
A|-3-3-3-3-3-3-3-3-3-3-3-3-4-4-4-4-4-4-4-4-4-4-4-4-|
E|-------------------------------------------------|

G|-------------------------------------------------|
D|-------------------------------------------------|
A|-------------------------------------------------|
E|-4-4-4-4-4-4-4-4-4-4-4-4-5-5-5-5-5-5-5-5-5-5-5-5-|

G|-------------------------------------------------|
D|-------------------------------------------------|
A|-------------------------------------------------|
E|-2-2-2-2-2-2-2-2-2-2-2-2-3-3-3-3-3-3-3-3-3-3-3-3-|

G|-------------------------------------------------|
D|-------------------------------------------------|
A|-------------------------------------------------|
E|-7-7-7-7-7-7-7-7-7-7-7-7-7-7-7-7-7-7-7-7-7-7-7-7-| (or you play A string 2nd fret)


Verse 2 (Play this two times)

G|-------------------------------------------------|
D|------------4---------------------4--------------|
A|----------5---7--7--------------5---7--7---------|
E|--0--0------------------0--0---------------------|

G|-------------------------------------------------|
D|-------------------------------------------------|
A|--3--3----2-5-3--3------3--3----2-5-3--3---------|
E|---------------------------------------------3-2-|

        (play this one time)
G|-------------------------------------------------|
D|------------4---------------------4--------------|
A|----------5---7--7--------------5---7--7-------5-|
E|--0--0------------------0--0---------------------|

G|-------------------------------------------------|
D|-------------------------------------------------|
A|--3--3----2-5-3--3------3--3----2-5-3--3---------|
E|---------------------------------------------3-2-|

        (play this one time)
G|-------------------------------------------------|
D|------------4---------------------4--------------|
A|----------5---7--7--------------5---7--7---------|
E|--0--0------------------0--0---------------------|

G|-------------------------------------------------|
D|-------------------------------------------------|
A|--3--3----2-5-3--3------3--3----2-5-3--3---------|
E|---------------------------------------------3-2-|


Chorus (These repeated notes aren't the actual count, just hang around while it feels good)
G|-------------------------------------------------|
D|------------4------------------------------------|
A|----------5---7--7-------0-0-0-0-0-0-0-0-0-0-0-0-|
E|--0--0-------------------------------------------|

G|-------------------------------------------------|
D|-------------------------------------------------|
A|-3-3-3-3-3-3-3-3-3-3-3-3-4-4-4-4-4-4-4-4-4-4-4-4-|
E|-------------------------------------------------|

G|-------------------------------------------------|
D|-------------------------------------------------|
A|-------------------------------------------------|
E|-4-4-4-4-4-4-4-4-4-4-4-4-5-5-5-5-5-5-5-5-5-5-5-5-|

G|-------------------------------------------------|
D|-------------------------------------------------|
A|-------------------------------------------------|
E|-2-2-2-2-2-2-2-2-2-2-2-2-3-3-3-3-3-3-3-3-3-3-3-3-|

G|-------------------------------------------------|
D|-------------------------------------------------|
A|-------------------------------------------------|
E|-7-7-7-7-7-7-7-7-7-7-7-7-7-7-7-7-7-7-7-7-7-7-7-7-|


Ending fade away
        (Play this two times)

G|-------------------------------------------------|
D|------------4---------------------4--------------|
A|----------5---7--7--------------5---7--7---------|
E|--0--0------------------0--0---------------------|

G|-------------------------------------------------|
D|-------------------------------------------------|
A|--3--3----2-5-3--3------3--3----2-5-3--3---------|
E|---------------------------------------------3-2-|

        (play this two times)
G|-------------------------------------------------|
D|------------4---------------------4--------------|
A|----------5---7--7--------------5---7--7-------5-|
E|--0--0------------------0--0---------------------|

G|-------------------------------------------------|
D|-------------------------------------------------|
A|--3--3----2-5-3--3------3--3----2-5-3--3---------|
E|---------------------------------------------3-2-|


        (repeat until end)
G|-------------------------------------------------|
D|------------4---------------------4--------------|
A|----------5---7--7--------------5---7--7-------5-|
E|--0--0--------------3-2-0--0---------------------|

G|-------------------------------------------------|
D|---------------------------------------------5---|
A|--3--3----2-5-3--3------3--3----2-5-3--3------5--|
E|-------------------------------------------------|

Suggest correction
Give kudos to tab author, rate the tab!
1 2 3 4 5
comments
print report bad tab
guest
You may want to rate the tab now too:
select rating
Please do not post tabs as comments. Select "correction" instead!