Oops, an error
Loading. Please wait.

Going Down Bass Tab

7,123 views 12 this week
5 commentsread comments
1 2 3 4 5
1 last vote to show rating
add to favorites
launch autoscroll
font size
0
reset
guitar tuner
Autoscroll
slow
fast
+/-
esc
set tempo
stop
Help us to improve Ultimate-Guitar.com Take our survey!
×
Author
Going Down

Joe Satriani, Steve Vai and Eric Johnson (G3) Live in Concert

Tuning: Standard EADGBE

Main Riff
|-------------------|
|-------------------|
|-------------------|
|--10--8------------|
|---------8---------|
|------------11--8--|

Chords
|--8-----8-----10--|
|--8-----10----12--|
|--9-----10----12--|
|--10----10----12--|
|--10----8-----10--|
|--8-----8-----10--|

Bass Line (Main Riff)
|------------------------------------------------------------------------------------------|
|----------------------------------10-10-10-10-8-8-8-8-------------------------------------|
|------------------------------------------------------8-8-8-8-----------------------------|
|--8-8-8-8-8-8-8-8-8-8-8-8-8-8-8-8-----------------------------11-11-11-11-8-8-8-8-8-8-8-8-|

|------------------------------------------------------------------------------------------|
|-------------------------------------------------------10-10-10-10-8-8-8-8----------------|
|-----------------------8-8-8-8-8-8-8-8-8-8-8-8-8-8-8-8---------------------8-8-8-8--------|
|-8-8-8-8-8-8-6-6-7-7---------------------------------------------------------------11-11--|

|------------------------------------------------------------------------------------------|
|------------------------------------------------------------------------------------------|
|--------------------------------------------10-10-10-10-10-10-10-10-10-10-10-10-10-10-10--|
|11-11-8-8-8-8-8-8-8-8-8-8-8-8-8-8-6-6-7-7-------------------------------------------------|

|-------------------------------------------------------------------------------|
|---10-10-10-10-8-8-8-8---------------------------------------------------------|
|10---------------------8-8-8-8-------------------------------------------------|
|-------------------------------11-11-11-11-8-8-8-8-8-8-8-8-8-8-8-8-8-8-6-6-7-7-|

I think thats basically it... If you listen to the song and the way they play it you can figure
out where it all goes and how many times you do what...
But this'll give you a basic example of the song.

Luke.
email me: loop_de_luke@msn.com
Suggest correction
Give kudos to tab author, rate the tab!
1 2 3 4 5
comments
print report bad tab
5 comments total. Showing first comments.
-1 reply
cerebraljelly 10 Oct 06, 2006 12:19 PM

all wrong...stop posting...you are tone deaf or just dont know how to correctly make tab!

0 reply
cerebraljelly 10 Oct 06, 2006 12:20 PM

riif wrong

0 reply
loop-de-luke 413 Oct 06, 2006 11:56 PM

Fuck you too... you should probably listen to the right song firstly (this is the G3 VERSION from the DVD, if you bothered to notice), and then attempt the song... Also, most of the tab is for guitar but UG just called it bass.

guest
You may want to rate the tab now too:
select rating
Wanna post a correction for this tab? Suggest correction