Oops, an error
Loading. Please wait.

House Full Of Bullets Live Tab

630 views 1 this week
no commentswrite comment
1 2 3 4 5
please rate
add to favorites
launch autoscroll
font size
0
reset
how to read this tab
guitar tuner
Autoscroll
slow
fast
+/-
esc
set tempo
stop
Help us to improve Ultimate-Guitar.com Take our survey!
×
Author
Satriani
hfob -live

  intro
|---2--5b6~~--2-2------------------------------------------|
|--2-2---------5--5-2--------------------------------------|
|---------------------4b6r4-2--4-2-------------------------|
|----------------------------4----4-2-------------------4--|
|------------------------------------4-2--2h3p0-0h2p0------|
|-----------------------------------------------------2----|

|--2--2--5h6~~--5p2---------------------------------------------|
|-2--2-------------2-2----4-5r4---------------------------------|
|-------------------4-------5r4-2---4--2------------------------|
|--------------------------------4---4--4--2--------------------|
|-------------------------------------------4-2-2b3~~~~---2-----|
|------------------------------------------------------5---5-2\-|

|---------------------------------------------------------------------------|
|---------------------------------------------------------------------------|
|----------------------<9-->-------------------9---9--11/14~~-11--11-14-11--|
|--------7--9-7--9/11--<-11>----9/7---7~~--9/11--11-------------14----------|
|-7-8-9---9------------------------9----------------------------------------|
|---------------------------------------------------------------------------|
                        <> = fingerpicking

|-14-14-12---------14--12-------------------------------14-------------14--14--17b18~~-17--|
|-14-14---14-13-12---13--13-12----------------------------17-14-----14---17--17------------|
|-----------------------------14/16-/17\16-14--16-14~~---------16b18-----------------------|
|--------------------------------------------16--------------------------------------------|
|------------------------------------------------------------------------------------------|
|------------------------------------------------------------------------------------------|

|-14--14---17--14--------------------------------------------------|
|---17--14---16--16-14---------------------------------------------|
|---------------------17-16-14---16--14----------------------------|
|------------------------------16--16---16-14----------------------|
|--------------------------------------------16-14/12-14b15r14-12--|
|------------------------------------------------------------------|
                                                      


This tab may have several fakes ;], this isn't whole intro
Suggest correction
Give kudos to tab author, rate the tab!
1 2 3 4 5
comments
print report bad tab
guest
You may want to rate the tab now too:
select rating
Wanna post a correction for this tab? Suggest correction