Oops, an error
Loading. Please wait.

If I Could Fly Tab

version 1
version 1

Whole song

Interactive

184,516 views 108 this week
19 commentsread comments
1 2 3 4 5
x 31
add to favorites
launch autoscroll
font size
0
reset
how to read this tab
guitar tuner
Autoscroll
slow
fast
+/-
esc
set tempo
stop
Help us to improve Ultimate-Guitar.com Take our survey!
×
Author
-------------------------------------------------------------------------------
                     If I Could Fly - Joe Satriani
-------------------------------------------------------------------------------

Tabbed by:Grant Smith
email: Bulletproof__Cupid@hotmail.com
Tuning: Standard


In My Opinion this is one of Joes best songs to date and have therefore tabbed it
out for everyone to enjoy.
                                                                               
e||------------------|------------------|------------------|------------------|
B||------------------|------------------|------------------|------------------|
G||------------------|------------------|------------------|------------------|
D||------------------|------------------|------------------|------------------|
A||------------------|------------------|------------------|------------------|
E||------------------|------------------|------------------|------------------|


e|------------------|---------------------|---------------------|
B|------------------|-------------3----3~-|-------------3-------|
G|------------------|----------4----------|----4-------------6~-|
D|------------------|---------------------|---------------------|
A|------------------|---------------------|---------------------|
E|------------------|---------------------|---------------------|

                                                                
e|----------------------|------------------|---------------------|
B|----------------------|------------------|-------------3----3~-|
G|------4----2/-4/---2~-|------------------|----------4----------|
D|----------------------|------------------|---------------------|
A|----------------------|------------------|---------------------|
E|----------------------|------------------|---------------------|

                                                                 
e|---------------------|-----------------------|------------------|
B|-------------3-------|-----------------------|------------------|
G|----4-------------6~-|----4----2----4/-6/-4~-|------------------|
D|---------------------|-----------------------|------------------|
A|---------------------|-----------------------|------------------|
E|---------------------|-----------------------|------------------|

                                                                    
e|---------------------|---------------------|-----------------------|
B|-------------3----3--|----5--------3-------|-----------------------|
G|----------4----------|------------------x--|--6/-4----2----4/---6--|
D|---------------------|---------------------|-----------------------|
A|---------------------|---------------------|-----------------------|
E|---------------------|---------------------|-----------------------|

                                                                      
e|-------------------------|---------------------|---------------------|
B|-------------------------|-------------3----3~-|-------------3-------|
G|----7/6/7/6-4----2/---4~-|----------4----------|----4-------------6--|
D|-------------------------|---------------------|---------------------|
A|-------------------------|---------------------|---------------------|
E|-------------------------|---------------------|---------------------|

                                                                      
e|-----------------------|--------------------|----------------15------|
B|-----------------------|--------------------|--17b---------------17~-|
G|----4----2----4--6--4~-|----------4/-x------|------------------------|
D|-----------------------|--------------------|------------------------|
A|-----------------------|--------------------|------------------------|
E|-----------------------|--------------------|------------------------|

                                                                             
e|--------------------|----------------------------|--------------------------|
B|----------------15--|--17~-----15--17~---17--15--|--17--19----15----12------|
G|--------------------|----------------------------|--------------------------|
D|--------------------|----------------------------|--------------------------|
A|--------------------|----------------------------|--------------------------|
E|--------------------|----------------------------|--------------------------|


                                                                             
e|------------------------|----------------------|--17------------------------|
B|--17b---------17b---17~-|--------------17--15--|------17b---15~---------14--|
G|------------------------|----------------------|--------------------16------|
D|------------------------|----------------------|----------------------------|
A|------------------------|----------------------|----------------------------|
E|------------------------|----------------------|----------------------------|


                                                                     
e|----------------------|----------------------|----------------------|
B|----15~---------------|--17b---------17r-----|--------17~-------15--|
G|------------------16--|----------------------|----------------------|
D|----------------------|----------------------|----------------------|
A|----------------------|----------------------|----------------------|
E|----------------------|----------------------|----------------------|


                                                          
e|------------------------------|--------------------------|
B|--17~---17--15--17~---17--15--|--17--19------------------|
G|------------------------------|------------19----16~-----|
D|------------------------------|--------------------------|
A|------------------------------|--------------------------|
E|------------------------------|--------------------------|


                                                                     
e|----------------------|----------------------|--17----17~-----------|
B|----17b-------17~-----|------------15/-14----|----------------------|
G|----------------------|----------------------|----------------------|
D|----------------------|----------------------|----------------------|
A|----------------------|----------------------|----------------------|
E|----------------------|----------------------|----------------------|


                                                           
e|------------------|------------------|--------------------|
B|------------------|------------------|--------------------|
G|------------------|------------------|--------------------|
D|------------------|------------------|----------12/-------|
A|------------------|------------------|----------12/-------|
E|------------------|------------------|----------12/-------|


                                                                        
e|---------5p3p2/3h5h7p-5p3h5p--3-|--2h3---2h3p2p0-----------------------|
B|--------------------------------|-----------------5p3p2/3h5h7--3h5p3---|
G|--------------------------------|------------------------------------7-|
D|--------------------------------|--------------------------------------|
A|--------------------------------|--------------------------------------|
E|--------------------------------|--------------------------------------|


                                                      
e|----------------------------|------------------------|
B|--3-------------------------|------------------------|
G|----7p6p4---6/-9/-6p-4--6/4-|--4/-2~-----------------|
D|----------------------------|------------------------|
A|----------------------------|------------------4h5h7-|
E|----------------------------|------------------------|


                                                  
e|-------------------------------------------------|
B|---------------------------------------------7h8-|
G|------------------6h7h9p7p6/7h9h11-----6h7h9-----|
D|--4h5h7p5p4/5h7h9--------------------------------|
A|-------------------------------------------------|
E|-------------------------------------------------|


                                           
e|-----------------9h10h12----14p12p9-------|
B|--10p8p7/8h10h12--------------------------|
G|------------------------------------------|
D|------------------------------------------|
A|------------------------------------------|
E|------------------------------------------|


                                                                                
e|--12------14p12-17-17p12-14p12----12----|--------------------------------------|
B|-------------------------------17----14-|--17p14p12-14p-12----12---------------|
G|----------------------------------------|------------------14-----14-11~---14--|
D|----------------------------------------|--------------------------------------|
A|----------------------------------------|--------------------------------------|
E|----------------------------------------|--------------------------------------|


                                           
e|------19p14-19-19p14----14----------------|
B|---------------------19----14-19p14----14-|
G|------------------------------------18----|
D|------------------------------------------|
A|------------------------------------------|
E|------------------------------------------|


                                                            
e|-----------------------------------------------------------|
B|-----------------------------------------------------------|
G|--16--14h16p14/12-14p12-14p11-12-11h12p11----11------------|
D|------------------------------------------14----14/11p9/11/|
A|-----------------------------------------------------------|
E|-----------------------------------------------------------|


                                                                             
e|----------------------|-----------------------|--------19b-----10----7------|
B|----------------------|-----------------------|--x--x-------------------10b-|
G|-----------------8~---|-----------------------|-----------------------------|
D|--9p--7---9-----------|----9/-x---------------|-----------------------------|
A|----------------------|-----------------------|-----------------------------|
E|----------------------|----------7----19/-----|-----------------------------|


                                                                      
e|--7----------------------7--------|----------------------------------|
B|----7-10-------------------10p7---|--7-------------------------------|
G|---------9b9p7---7h9~-----------9b|----10-9p7---9p7---7--------------|
D|---------------9------------------|-----------9-----9----9p7---7-----|
A|----------------------------------|--------------------------9---9p7/|
E|----------------------------------|----------------------------------|


                                                           
e|---------------------------------|------------------------|
B|---------------------------------|---------------7----8p7-|
G|---------------------------------|--6----7~---9-----------|
D|-------------------------7---9-7-|------------------------|
A|--5---7---5b-----7-5-7/9---9-----|------------------------|
E|----7---7----7-5-----------------|------------------------|


                                                   
e|-----------7-9----7-9h10-------9h10h12p10p9/10h12h|
B|----7-8-10-----10--------7/-12--------------------|
G|--9-----------------------------------------------|
D|--------------------------------------------------|
A|--------------------------------------------------|
E|--------------------------------------------------|


                                                
e|--14--12p10-12--10-----------------------------|
B|--------------------8h10p8p7----7-8p7----7-----|
G|-----------------------------10-------10---9p7/|
D|-----------------------------------------------|
A|-----------------------------------------------|
E|-----------------------------------------------|


                                                               
e|------------------------------------|-------------------------|
B|------------------------------------|--x--17b-------17b---17~-|
G|--6h7h9p7p6---6h7p6---6-7~----------|-------------------------|
D|------------9-------9--------5/-16--|-------------------------|
A|------------------------------------|-------------------------|
E|------------------------------------|-------------------------|


                                                          
e|--------------------------|------------------------------|
B|------17~---17~---17--15--|--17~---17--15--17~---17--15--|
G|--------------------------|------------------------------|
D|--------------------------|------------------------------|
A|--------------------------|------------------------------|
E|--------------------------|------------------------------|


                                                                               
e|-----------------------------|------------------------|-----------------------|
B|--17~-17b--------------------|--------17b---------17--|------17~-----17/------|
G|------------16b-16----16/-7/-|--16--------------------|-----------------------|
D|-----------------------------|------------------------|-----------------------|
A|-----------------------------|------------------------|-----------------------|
E|-----------------------------|------------------------|------------------x----|


                                                                     
e|---------------------|----------------------|-----------------------|
B|---------------------|----------------------|-----------------------|
G|---------------------|-------------7--------|-----------------------|
D|---------------------|-------------x----11--|--11/-9----7-----------|
A|-------------5----5~-|-------------5--------|-----------x-----------|
E|----------7----------|----7-------------9---|--9/--7----5------5----|


                                                                     
e|-----------------------|----------------------|---------------------|
B|-----------------------|----------------------|---------------------|
G|-----------------------|----------------------|-------------7----9--|
D|-----------------------|----------------------|-------------x-------|
A|--------------0--0-----|--------------5----5~-|-------------5----7--|
E|------5----5--------5--|--------0/-7----------|----7----------------|


                                                                          
e|-----------------------|--------------------------|----------------------|
B|-----------------------|----------10--10--10------|----------------------|
G|--9/-11----------------|--------------------------|----------------------|
D|-----------------------|--------------------------|----------------------|
A|--7/-9-----7~-------7/-|--------------------------|--------------5----5~-|
E|-----------------------|----------------------10/-|--x--------7----------|


                                                                         
e|----------------------|-------------------------|-----------------------|
B|----------------------|-------------------------|-----------------------|
G|-------------7--------|-------------------------|-----------------------|
D|-------------x----11--|--11/-9----7----9----11~-|--------9----11/-9/-7--|
A|-------------5--------|-----------x----x----x---|-----------------------|
E|----7-------------9---|--9/--7----5----7----9~--|--------7----9/--7/-5--|


                                                                         
e|-----------------------|-----------------------|------------------------|
B|-----------------------|-----------------------|------------------------|
G|-----------------------|-----------------------|------------------------|
D|--9--------------------|-----------------------|---------------------7~-|
A|---------------5----5~-|-----------------------|--5--7----7~---x--x-----|
E|--7------0/-7----------|----7----x--x--7----x--|------------------------|


                                                                                
e|----------------------|------------------|------------------|------------------|
B|------------------10~-|------------------|------------------|------------------|
G|--------9~-----7~-----|------------------|------------------|------------------|
D|----------------------|------------------|------------------|------------------|
A|----------------------|------------------|------------------|------------------|
E|----------------------|------------------|------------------|------------------|


                                                                            
e|------------------|------------------|------------------|------------------|
B|------------------|------------------|------------------|------------------|
G|------------------|------------------|------------------|------------------|
D|------------------|------------------|------------------|------------------|
A|------------------|------------------|------------------|------------------|
E|------------------|------------------|------------------|------------------|


                                                                       
e|----------------------|--------------------------|--------------------|
B|----------------------|--------------------13b---|--------------------|
G|----------------------|--------12----14~---------|--------------------|
D|--------9-------------|----14--------------------|------------14------|
A|-----------x--x--7/---|--------------------------|--------------------|
E|-----------x--x--7/---|--------------------------|--------------------|


                                                               
e|---------------------------|----------------------------------|
B|---------------------------|--13b-13b---------------------13b-|
G|---------12----14~---12----|----------14-12-----12--14~-------|
D|--x--14--------------------|----------------14----------------|
A|---------------------------|----------------------------------|
E|---------------------------|----------------------------------|


                                                    
e|--------------------------|--x-x-------------------|
B|--------------------13b---|--x-x-------------------|
G|--------12----14~---------|------------------------|
D|----14--------------------|--------------------14--|
A|--------------------------|------------------------|
E|--------------------------|------12/---------------|


                                                                
e|------------------------------|--------------------------------|
B|----------------------13b-15--|--13b-------------13--15b----13-|
G|--12b-14--14----14~-----------|------14-12-14~-----------------|
D|------------------------------|--------------------------------|
A|------------------------------|--------------------------------|
E|------------------------------|--------------------------------|


                                                            
e|--------------------------|--------------------------------|
B|--------13--15p13b--------|----------------13--15r---15p13-|
G|--14~---------------------|--------12--14------------------|
D|--------------------------|----14--------------------------|
A|--------------------------|--------------------------------|
E|--------------------------|--------------------------------|


                                                    
e|--------------------|------------------------------|
B|--15~---------------|----15r---14--15--15b-15--13b-|
G|--------------------|------------------------------|
D|--------------------|------------------------------|
A|--------------------|------------------------------|
E|--------------------|------------------------------|


                                                              
e|------------------------5---|--------5-----------------------|
B|--------------13b---------8-|--5---5---8p5---5---------------|
G|--14-12-14~-----------------|----7b--------7b--7-5-----7--5b-|
D|----------------------------|----------------------7-5-------|
A|----------------------------|--------------------------------|
E|----------------------------|--------------------------------|


                                                     
e|-----------------------|----------------------------|
B|-----------------------|----------------------------|
G|-----------5b----------|--5b-5b-----5b-5b-----5b-5b-|
D|--7-5-7~------------7--|--------7-5-------7-5-------|
A|-----------------------|----------------------------|
E|-----------------------|----------------------------|


                                                            
e|-----------------------------|-----------------------------|
B|-----------------------------|---------5b-5b---------------|
G|------5b-5b-----5b-5b-----5b-|--5b-----5b-5b-----5b-5b-0-7-|
D|--7-5-------7-7-------7-5----|-----7-5-------7-5-----------|
A|-----------------------------|-----------------------------|
E|-----------------------------|-----------------------------|


                                                                  
e|------------------5-8-5-----5-|----------5-----------------------|
B|------------------5-8-5---5---|--8p5---5---8p5---5---------------|
G|--5-7-5b----------------7b----|------7b--------7---8p7p5-7p5-7/9-|
D|---------7-5-7~---------------|----------------------------------|
A|------------------------------|----------------------------------|
E|------------------------------|----------------------------------|


                                                             
e|----------0---------0--0------|--0--0----------0------------|
B|--10------10----13b-----------|------------10-----13r---10--|
G|------12b-------12b-------12b-|--------12b------------------|
D|------------------------------|-----------------------------|
A|------------------------------|-----------------------------|
E|------------------------------|-----------------------------|


                                                                           
e|------------------17------|----------------------|--------20b---17--17~---|
B|--------------------------|------20r-------20~---|------------------------|
G|--14~---14--16b-----------|----------------------|------------------------|
D|--------------------------|----------------------|------------------------|
A|--------------------------|----------------------|------------------------|
E|--------------------------|----------------------|------------------------|


                                                                  
e|------17----------------17------|--------------17----------------|
B|--20b-----17--20--20b-------17--|--20b------------17-20-17----17-|
G|--------------------------------|--------------------------19b---|
D|--------------------------------|--------------------------------|
A|--------------------------------|--------------------------------|
E|--------------------------------|--------------------------------|


                                                                
e|--------------------------------|------------------------------|
B|----------------------13----13b-|--------------13b-----15r-13--|
G|--20-19-17b-------14-----14-----|--14-12-14~-------------------|
D|--------------------------------|------------------------------|
A|--------------------------------|------------------------------|
E|--------------------------------|------------------------------|


                                                                         
e|--------------------------------|---------------------------------------|
B|----15r-13----15r-13------13-15-|--15r-13h15-13-15-13b------------13b---|
G|-----------------------14-------|-----------------------14-12-14~-------|
D|--------------------------------|---------------------------------------|
A|--------------------------------|---------------------------------------|
E|--------------------------------|---------------------------------------|


                                                                              
e|------------------------------------------|----------------------------------|
B|------------------------------------------|------10--10------12b-12b-10------|
G|--14-12-----------------------------------|--11----------10--------------11--|
D|--------14-12/10----12----10b-------------|----------------------------------|
A|-----------------12----12-----12-10-12----|----------------------------------|
E|------------------------------------------|----------------------------------|


                                                                     
e|------------------9--10--11--12------|------------------------------|
B|--10~---10--12b------------------12r-|----10----10~---10--------10--|
G|-------------------------------------|-------12----------12~--------|
D|-------------------------------------|------------------------------|
A|-------------------------------------|------------------------------|
E|-------------------------------------|------------------------------|


                                                                             
e|------------------------------|-------5-----5---------|----5--------5----x--|
B|--------10--------10----10/---|--8-------7--5--7r-----|----5--------5----x--|
G|----12b-----12~------12-------|----------7-----7r-----|---------------------|
D|------------------------------|-----------------------|---------------------|
A|------------------------------|-----------------------|---------------------|
E|------------------------------|-----------------------|---------------------|


                                                                       
e|--5---------5-------5--|------------------------|----------5-------5--|
B|--5----7----5--7----5--|----7b------------------|----------5--7r---5--|
G|-------7-------7-------|----7b-5b--------5h7-5b-|-------------7r------|
D|-----------------------|----------7~------------|---------------------|
A|-----------------------|------------------------|---------------------|
E|-----------------------|------------------------|---------------------|


                                                      
e|----x--x--x--8--8b-5-----|--5--------------8-10-8b---|
B|----x--x--x--7--------8b-|-----10~---10~-------------|
G|-------------------------|---------------------------|
D|-------------------------|---------------------------|
A|-------------------------|---------------------------|
E|-------------------------|---------------------------|


                                                                 
e|----------------------------------|-----------------------------|
B|--10-8----8-10-8------------------|-----------------------------|
G|-------9---------9--7--5b-7-5-----|-----5b---------5b-5b-----5b-|
D|------------------------------7-5-|--7-----7-7-7-5-------7-7----|
A|----------------------------------|-----------------------------|
E|----------------------------------|-----------------------------|


                                                               
e|-------------------5---------|--5--------------5--------5-----|
B|-----------------------------|--5----------------8p5------8p5-|
G|--5b-7p0-5b-7-5-7b---7r-5-7--|----7r-----7p5h7-------7b-------|
D|--------------------------7--|--------------------------------|
A|-----------------------------|--------------------------------|
E|-----------------------------|--------------------------------|


                                                               
e|------------5-------------------|------5---------5------------|
B|--------------8-5---------------|--------8p5---5---8p5---5-8--|
G|--7r-5------------7r-5----0--7r-|------------7b--------7------|
D|-------7---------------7--0-----|-----------------------------|
A|--------------------------------|-----------------------------|
E|--------------------------------|-----------------------------|


                                                           
e|---------------------------|------------------------------|
B|---------------------------|------------------------------|
G|--7b-7b--7b--7b--7-7-5-7-5-|--7-5-----5b-5b---------------|
D|---------------------------|------7-5-------7-5-----------|
A|---------------------------|--------------------7-5/3--5--|
E|---------------------------|------------------------------|


                                                                       
e|-------------------------|--------------5------|----------------------|
B|-------------3-----5-----|----3----3-----------|-------------3--------|
G|-----2~------------------|---------------------|----------------------|
D|----------4-----5-----4--|---------------------|----------4-----4/-2--|
A|--0----------------------|---------------------|----------------------|
E|-------------------------|---------------------|----------------------|


                                                        
e|------------------------|---------5----------10-12-14--|
B|--2---------3p-2--------|----------------12b-----------|
G|--2---------------------|------7-----11----------------|
D|---------4--------------|------------------------------|
A|------------------3b-0--|------------------------------|
E|------------------------|------------------------------|


                                           
e|--15--12-14--10-12------------------------|
B|----------------------15p12-14~--12----14-|
G|------------------------------------14----|
D|------------------------------------------|
A|------------------------------------------|
E|-------------------12---------------------|


                                                                              
e|-----------------------14p12--------------|----------------------------------|
B|--14p12----12----------------------14p12--|---10-8---------------------------|
G|--------14----14p12~---------14-12--------|--------9p7/6-7p6---6-------------|
D|------------------------------------------|------------------9---9p7h9p7p5---|
A|------------------------------------------|--------------------------------9-|
E|------------------------------------------|----------------------------------|


                                                                        
e|-------------------5-7p5-7p5-|--7/10---9h10p9/7-9p7h9p7/5h7p5/3h5p3/2--|
B|-----------------8-----------|-----------------------------------------|
G|-----------------------------|-----------------------------------------|
D|-----------------------------|-----------------------------------------|
A|--7/-9p7-7/-5~---------------|-----------------------------------------|
E|-----------------------------|-----------------------------------------|


                                                  
e|---3p2/3h5h7p5p3/2h3h5p3p2p0---------------------|
B|-----------------------------2h3h5p3p2/3h5h7p5p3/|
G|-------------------------------------------------|
D|-------------------------------------------------|
A|-------------------------------------------------|
E|-------------------------------------------------|


                                                     
e|----------------------------------------------------|
B|--2h3p2---2---------------------2h3h5p3p2-----------|
G|--------4---4-2-4p2-4p2p0-0h2h4-----------4-0h2h3p2-|
D|----------------------------------------------------|
A|----------------------------------------------------|
E|----------------------------------------------------|


                                
e|-------------------------------|
B|-------------------------------|
G|------2------------------------|
D|--4h5---5p4p2------------------|
A|--------------5p4p2p0----------|
E|-------------------------------|


                                                  
e|--15-14p12----12-12----12----------14-12-0-12-10-|
B|-----------15-------15----15-14p12---------------|
G|-------------------------------------------------|
D|-------------------------------------------------|
A|-------------------------------------------------|
E|-------------------------------------------------|


                                                                         
e|--0-10-9-0---------------9-7-0-7-5-0-|--------------5-3-0-3-2p0---------|
B|-----------12-10-0-8-7-0-------------|--7-5-0-5-3-0-------------3-2p0---|
G|-------------------------------------|--------------------------------4-|
D|-------------------------------------|----------------------------------|
A|-------------------------------------|----------------------------------|
E|-------------------------------------|----------------------------------|


                                           
e|----------------------------------------0-|
B|------------------------------------------|
G|--3p2p0---0-3p2p0---0-3p2p0---0-3p2-0h4---|
D|--------0---------4---------4-------------|
A|------------------------------------------|
E|------------------------------------------|


                                                                   
e|--3p2p0-3p2p0---------------------------|-------------------------|
B|--------------3p2p0---------------------|-------------------------|
G|--------------------4p2p0---------------|-----6/-4-------------2--|
D|--------------------------4p2p0-7--0----|--7-----------4-------2--|
A|----------------------------------------|-----------5-------4--0--|
E|----------------------------------------|-------------------------|


                                                                           
e|-----------------------|--------------------------|-----------------------|
B|-----------------------|--------------------------|-----------------------|
G|---------2--2-------2~-|-------2--4b-4b-4--2---2--|-----------------------|
D|---------2--2----4-----|----4----------------4----|--5----7~---7~---5-----|
A|------3b-0--0----------|--------------------------|--------------------7--|
E|-----------------------|--------------------------|-----------------------|


                                                                         
e|-----------------------|-----------------------|------------------------|
B|-----------------------|-----------------------|------------------------|
G|-----------------------|-----------------------|---------------------2--|
D|--5--7----7~---5-------|--5----7----7~---5-----|--5--7------------4-----|
A|--------------------7--|--------------------7--|--------3b-0------------|
E|-----------------------|-----------------------|------------------------|


                                                                          
e|-----------------------|----------------------|--------------------------|
B|-----------------------|----------------------|--------------------------|
G|-----------------------|----------5b----------|--------5b-7--5b----------|
D|--5----7----7~---5-----|--5--7----------------|--5--7-----------7--5--7~-|
A|--------------------7--|-------------------7--|--------------------------|
E|-----------------------|----------------------|--------------------------|


                                                                           
e|-----------5---------5----|-----5--------------|----------5---------5---5-|
B|-------------8p5---5---5--|--8b----------------|------------8p5---5---5---|
G|----5b-----------7b-------|--------------------|----------------7b--------|
D|--------------------------|--------------------|--------------------------|
A|--------------------------|--------------------|--------------------------|
E|--------------------------|--------------------|--------------------------|


                                                 
e|-------5------5~---5~-|----8b-------------------|
B|--8b------------------|-------------------------|
G|----------------------|-----------------12b-14--|
D|----------------------|-------------14----------|
A|----------------------|-------------------------|
E|----------------------|-------------------------|


                                                              
e|--------------------------------|----------------------------|
B|--13-15-13b-------------13b-----|--15b-----15b--15b--15b--15b|
G|------------14-12-14~-----------|----------------------------|
D|--------------------------------|----------------------------|
A|--------------------------------|----------------------------|
E|--------------------------------|----------------------------|


                                                     
e|----------------------|-----------------------5-----|
B|---15b--15b-----------|--13--------13b----------8p5-|
G|----------------------|-----14~------------7b-------|
D|----------------------|-----------------------------|
A|----------------------|-----------------------------|
E|----------------------|-----------------------------|


                                                                          
e|-----5--------5--------5--------5-----|-----5-------5----5-----5-----5---|
B|-------8p5------8p5------8p5------8p5-|-------8p5-5---5----8p5---8p5---8p|
G|--7b-------7b-------7b-------7b-------|--7b------------------------------|
D|--------------------------------------|----------------------------------|
A|--------------------------------------|----------------------------------|
E|--------------------------------------|----------------------------------|


                                                              
e|----5--------5-----------------|-----------------------------|
B|--5---8p5------8---------------|-----------------------------|
G|----------7b-----7b-5---7---5b-|----------5b-5b----5b-5b-----|
D|----------------------7---7----|--7-5-7-5-------7/-------7-5-|
A|-------------------------------|-----------------------------|
E|-------------------------------|-----------------------------|


                                                          
e|----------------------------|----------------------------|
B|----------------------------|----------------------------|
G|--5b-5b-----5b-5b-----5b-5b-|------5b-5b-----5p0-5--4----|
D|--------7-5-------7-5-------|--7-5-------7-5-------------|
A|----------------------------|----------------------------|
E|----------------------------|----------------------------|


                                                              
e|---------5-----------------|---------------------------------|
B|-----------5-8p5-----------|---------------------------------|
G|------7b---------7b-5---5--|-----6----7-----9-----11-----12--|
D|----------------------7----|---------------------------------|
A|---------------------------|--7-----9----10----12-----14-----|
E|---------------------------|---------------------------------|


                                       
e|--------------------------------------|
B|--------------------------------------|
G|--------12----12-12-12-12-12-12-12-12-|
D|--------x-----x--x--x--x--x--x--x--x--|
A|--14----14----14-14-14-14-14-14-14-14-|
E|--------------------------------------|


                                                   
e|--------------------------------------------------|
B|--------------------------------------------------|
G|--12-12-12-12-12-12-12-12/16-16-16-16-16-16-16-16-|
D|--x--x--x--x--x--x--x--x--x--x--x--x--x--x--x--x--|
A|--14-14-14-14-14-14-14-14/17-17-17-17-17-17-17-17-|
E|--------------------------------------------------|


                                                 
e|------------------------------------------------|
B|------------------------------------------------|
G|--16--14-14-14-14-14-14-14-14-14-14-18-18-18-18-|
D|--x---x--x--x--x--x--x--x--x--x--x--x--x--x--x--|
A|--17--16-16-16-16-16-16-16-16-16-16-19-19-19-19-|
E|------------------------------------------------|


                                                            
e|-----------------------------------|------5-------------5--|
B|---------------------------x--7r---|------5-----5--7r---5--|
G|--18-18-18-18-18-18-18/-------7r---|---------7--5--7r------|
D|-----------------------------------|---------7-------------|
A|--19-19-19-19-19-19-19/-0----------|-----------------------|
E|-----------------------------------|-----------------------|


                                                                              
e|-------5--5-----5--5-----|--5---------5-----------|--------------5---------5-|
B|----7--5--5--7--5--5--7--|--5----7r---5--7--------|------5---------8p5---5---|
G|----7--------7--------7--|-------7b------7--5-----|------5--7~---------7b----|
D|-------------------------|---------------------7~-|--------------------------|
A|-------------------------|------------------------|--------------------------|
E|-------------------------|------------------------|--------------------------|


                                                                    
e|----------5-----8b--5-------8---|--5-----------5-------------------|
B|--8p5---5---8p5-------8p5-5---8-|----5-8p5---5---8p5---5-----------|
G|------7b------------------------|----------7b--------7b--8p7p5-----|
D|--------------------------------|------------------------------7-5-|
A|--------------------------------|----------------------------------|
E|--------------------------------|----------------------------------|


                                                           
e|----------------------------|-----------------------------|
B|----------------------------|-----------------------------|
G|--5b-5b-----5b-5b-----5b-5b-|--7-5b-7-5b-7-5b-7-5b-7-5b-7-|
D|--------7-5-------7-5-------|-----------------------------|
A|----------------------------|-----------------------------|
E|----------------------------|-----------------------------|


                                  
e|---------------------------------|
B|---------------------------------|
G|--5b-7-5b7-7-5p0-7-5p0-7-5p0-7-5b|
D|---------------------------------|
A|---------------------------------|
E|---------------------------------|


                                                     
e|----------------------------------------------------|
B|--------10----10----10----10----10----10--------13b-|
G|---12------12----12----12----12----12----12/14------|
D|----------------------------------------------------|
A|----------------------------------------------------|
E|----------------------------------------------------|


                                                            
e|--------------------------------|------------17------------|
B|--15--13b-----------------------|------15b---------15r-13--|
G|----------14-14-14~---14~---14/-|--------------------------|
D|--------------------------------|--------------------------|
A|--------------------------------|--------------------------|
E|--------------------------------|--------------------------|


                                                                               
e|--15~---------------|------------------|------------------|------------------||
B|--------------------|------------------|------------------|------------------||
G|--------------------|------------------|------------------|------------------||
D|--------------------|------------------|------------------|------------------||
A|--------------------|------------------|------------------|------------------||
E|--------------------|------------------|------------------|------------------||

Ultimate-Guitar.Com Ultimate-Guitar.Com Ultimate-Guitar.Com Ultimate-Guitar.Com 
===============================================================================

Rhythm Guitar

Tuning: Standard

| ^  Bend
| /  slide up
| \  slide down
| h  hammer-on
| p  pull-off
| ~  vibrato
| +  harmonic
| x  Mute note
| w  Wah Wah

                                                                        
e||-------------------|--2----2----2--2----2--|----2--2--2----2--2--2--|
B||--2----------------|--0----0----0--0----0--|----0--0--0----0--0--0--|
G||--2----------------|--0----0----0--0----0--|----0--0--0----0--0--0--|
D||--2----------------|--0----0----0--0----0--|----0--0--0----0--0--0--|
A||--0----------------|--x----x----x--x----x--|----x--x--x----x--x--x--|
E||-------------------|--3----3----3--3----3--|----3--3--3----3--3--3--|


                                                                         
e|--0----0----0--0----0--|----0--0--0----0--0--0--|--2----2----2--2----2--|
B|--0----0----0--0----0--|----0--0--0----0--0--0--|--0----0----0--0----0--|
G|--2----2----2--2----2--|----2--2--2----2--2--2--|--0----0----0--0----0--|
D|--2----2----2--2----2--|----2--2--2----2--2--2--|--0----0----0--0----0--|
A|--x----x----x--x----x--|----x--x--x----x--x--x--|--x----x----x--x----x--|
E|--2----2----2--2----2--|----2--2--2----2--2--2--|--3----3----3--3----3--|


                                                                          
e|----2--2--2----2--2--2--|--0----0----0--0----0--|----0--0--0----0--0--0--|
B|----0--0--0----0--0--0--|--0----0----0--0----0--|----0--0--0----0--0--0--|
G|----0--0--0----0--0--0--|--2----2----2--2----8--|----8--8--8----8--8--8--|
D|----0--0--0----0--0--0--|--2----2----2--2----9--|----9--9--9----9--9--9--|
A|----x--x--x----x--x--x--|--x----x----x--x----9--|----9--9--9----9--9--9--|
E|----3--3--3----3--3--3--|--2----2----2--2----7--|----7--7--7----7--7--7--|


                                                                         
e|--2----2----2--2----2--|----2--2--2----2--2--2--|--0----0----0--0----0--|
B|--0----0----0--0----0--|----0--0--0----0--0--0--|--0----0----0--0----0--|
G|--0----0----0--0----0--|----0--0--0----0--0--0--|--2----2----2--2----2--|
D|--0----0----0--0----0--|----0--0--0----0--0--0--|--2----2----2--2----2--|
A|--x----x----x--x----x--|----x--x--x----x--x--x--|--x----x----x--x----x--|
E|--3----3----3--3----3--|----3--3--3----3--3--3--|--2----2----2--2----2--|


                                                                          
e|----0--0--0----0--0--0--|--2----2----2--2----2--|----2--2--2----2--2--2--|
B|----0--0--0----0--0--0--|--0----0----0--0----0--|----0--0--0----0--0--0--|
G|----2--2--2----2--2--2--|--0----0----0--0----0--|----0--0--0----0--0--0--|
D|----2--2--2----2--2--2--|--0----0----0--0----0--|----0--0--0----0--0--0--|
A|----x--x--x----x--x--x--|--x----x----x--x----x--|----x--x--x----x--x--x--|
E|----2--2--2----2--2--2--|--3----3----3--3----3--|----3--3--3----3--3--3--|


                                                                         
e|--0----0----0--0----0--|----0--0--0----0--0--0--|--2----2----2--2----2--|
B|--0----0----0--0----0--|----0--0--0----0--0--0--|--0----0----0--0----0--|
G|--2----2----2--2----8--|----8--8--8----8--8--8--|--0----0----0--0----0--|
D|--2----2----2--2----9--|----9--9--9----9--9--9--|--0----0----0--0----0--|
A|--x----x----x--x----9--|----9--9--9----9--9--9--|--x----x----x--x----x--|
E|--2----2----2--2----7--|----7--7--7----7--7--7--|--3----3----3--3----3--|


                                                                          
e|----2--2--2----2--2--2--|--0----0----0--0----0--|----0--0--0----0--0--0--|
B|----0--0--0----0--0--0--|--0----0----0--0----0--|----0--0--0----0--0--0--|
G|----0--0--0----0--0--0--|--2----2----2--2----2--|----2--2--2----2--2--2--|
D|----0--0--0----0--0--0--|--2----2----2--2----2--|----2--2--2----2--2--2--|
A|----x--x--x----x--x--x--|--x----x----x--x----x--|----x--x--x----x--x--x--|
E|----3--3--3----3--3--3--|--2----2----2--2----2--|----2--2--2----2--2--2--|


                                                                         
e|--2----2----2--2----2--|----2--2--2----2--2--2--|--0----0----0--0----0--|
B|--0----0----0--0----0--|----0--0--0----0--0--0--|--0----0----0--0----0--|
G|--0----0----0--0----0--|----0--0--0----0--0--0--|--2----2----2--2----8--|
D|--0----0----0--0----0--|----0--0--0----0--0--0--|--2----2----2--2----9--|
A|--x----x----x--x----x--|----x--x--x----x--x--x--|--x----x----x--x----9--|
E|--3----3----3--3----3--|----3--3--3----3--3--3--|--2----2----2--2----7--|


                                                                          
e|----0--0--0----0--0--0--|--0----0----0--0----0--|----0--0--0----0--0--0--|
B|----0--0--0----0--0--0--|--3----3----3--3----3--|----2--2--2----2--2--2--|
G|----8--8--8----8--8--8--|--0----0----0--0----0--|----2--2--2----2--2--2--|
D|----9--9--9----9--9--9--|--2----2----2--2----2--|----2--2--2----2--2--2--|
A|----9--9--9----9--9--9--|--2----2----2--2----2--|----0--0--0----0--0--0--|
E|----7--7--7----7--7--7--|--0----0----0--0----0--|----0--0--0----0--0--0--|


                                                                         
e|--0----0----0--0----0--|----0--0--0----0--0--0--|--0----0----0--0----0--|
B|--2----2----2--2----3--|----3--3--3----3--3--3--|--3----3----3--3----3--|
G|--2----2----2--2----4--|----4--4--4----4--4--4--|--0----0----0--0----0--|
D|--0----0----0--0----4--|----4--4--4----4--4--4--|--2----2----2--2----2--|
A|--x----x----x--x----2--|----2--2--2----2--2--2--|--2----2----2--2----2--|
E|--x----x----x--x----x--|----x--x--x----x--x--x--|--0----0----0--0----0--|


                                                                          
e|----0--0--0----0--0--0--|--0----0----0--0----0--|----0--0--0----0--0--0--|
B|----2--2--2----2--2--2--|--2----2----2--2----3--|----3--3--3----3--3--3--|
G|----2--2--2----2--2--2--|--2----2----2--2----4--|----4--4--4----4--4--4--|
D|----2--2--2----2--2--2--|--0----0----0--0----4--|----4--4--4----4--4--4--|
A|----0--0--0----0--0--0--|--x----x----x--x----2--|----2--2--2----2--2--2--|
E|----0--0--0----0--0--0--|--x----x----x--x----x--|----x--x--x----x--x--x--|


                                                                         
e|--0----0----0--0----0--|----0--0--0----0--0--0--|--0----0----0--0----0--|
B|--3----3----3--3----3--|----2--2--2----2--2--2--|--2----2----2--2----3--|
G|--0----0----0--0----0--|----2--2--2----2--2--2--|--2----2----2--2----4--|
D|--2----2----2--2----2--|----2--2--2----2--2--2--|--0----0----0--0----4--|
A|--2----2----2--2----2--|----0--0--0----0--0--0--|--x----x----x--x----2--|
E|--0----0----0--0----0--|----0--0--0----0--0--0--|--x----x----x--x----x--|


                                                                          
e|----0--0--0----0--0--0--|--0----0----0--0----0--|----0--0--0----0--0--0--|
B|----3--3--3----3--3--3--|--3----3----3--3----3--|----2--2--2----2--2--2--|
G|----4--4--4----4--4--4--|--0----0----0--0----0--|----2--2--2----2--2--2--|
D|----4--4--4----4--4--4--|--2----2----2--2----2--|----2--2--2----2--2--2--|
A|----2--2--2----2--2--2--|--2----2----2--2----2--|----0--0--0----0--0--0--|
E|----x--x--x----x--x--x--|--0----0----0--0----0--|----0--0--0----0--0--0--|


                                                                         
e|--2----2----2--2----2--|----2--2--2----2--2--2--|--0----0----0--0----0--|
B|--0----0----0--0----0--|----0--0--0----0--0--0--|--0----0----0--0----0--|
G|--0----0----0--0----0--|----0--0--0----0--0--0--|--2----2----2--2----2--|
D|--0----0----0--0----0--|----0--0--0----0--0--0--|--2----2----2--2----2--|
A|--x----x----x--x----x--|----x--x--x----x--x--x--|--x----x----x--x----x--|
E|--3----3----3--3----3--|----3--3--3----3--3--3--|--2----2----2--2----2--|


                                                                          
e|----0--0--0----0--0--0--|--2----2----2--2----2--|----2--2--2----2--2--2--|
B|----0--0--0----0--0--0--|--0----0----0--0----0--|----0--0--0----0--0--0--|
G|----2--2--2----2--2--2--|--0----0----0--0----0--|----0--0--0----0--0--0--|
D|----2--2--2----2--2--2--|--0----0----0--0----0--|----0--0--0----0--0--0--|
A|----x--x--x----x--x--x--|--x----x----x--x----x--|----x--x--x----x--x--x--|
E|----2--2--2----2--2--2--|--3----3----3--3----3--|----3--3--3----3--3--3--|


                                                                         
e|--0----0----0--0----0--|----0--0--0----0--0--0--|--2----2----2--2----2--|
B|--0----0----0--0----0--|----0--0--0----0--0--0--|--0----0----0--0----0--|
G|--2----2----2--2----2--|----2--2--2----2--2--2--|--0----0----0--0----0--|
D|--2----2----2--2----2--|----2--2--2----2--2--2--|--0----0----0--0----0--|
A|--x----x----x--x----x--|----x--x--x----x--x--x--|--x----x----x--x----x--|
E|--2----2----2--2----2--|----2--2--2----2--2--2--|--3----3----3--3----3--|


                                                                          
e|----2--2--2----2--2--2--|--0----0----0--0----0--|----0--0--0----0--0--0--|
B|----0--0--0----0--0--0--|--0----0----0--0----0--|----0--0--0----0--0--0--|
G|----0--0--0----0--0--0--|--2----2----2--2----2--|----2--2--2----2--2--2--|
D|----0--0--0----0--0--0--|--2----2----2--2----2--|----2--2--2----2--2--2--|
A|----x--x--x----x--x--x--|--x----x----x--x----x--|----x--x--x----x--x--x--|
E|----3--3--3----3--3--3--|--2----2----2--2----2--|----2--2--2----2--2--2--|


                                                                         
e|--2----2----2--2----2--|----2--2--2----2--2--2--|--0----0----0--0----0--|
B|--0----0----0--0----0--|----0--0--0----0--0--0--|--0----0----0--0----0--|
G|--0----0----0--0----0--|----0--0--0----0--0--0--|--2----2----2--2----2--|
D|--0----0----0--0----0--|----0--0--0----0--0--0--|--2----2----2--2----2--|
A|--x----x----x--x----x--|----x--x--x----x--x--x--|--x----x----x--x----x--|
E|--3----3----3--3----3--|----3--3--3----3--3--3--|--2----2----2--2----2--|


                                                                          
e|----0--0--0----0--0--0--|--0----0----0--0----0--|----0--0--0----0--0--0--|
B|----0--0--0----0--0--0--|--3----3----3--3----3--|----2--2--2----2--2--2--|
G|----2--2--2----2--2--2--|--0----0----0--0----0--|----2--2--2----2--2--2--|
D|----2--2--2----2--2--2--|--2----2----2--2----2--|----2--2--2----2--2--2--|
A|----x--x--x----x--x--x--|--2----2----2--2----2--|----0--0--0----0--0--0--|
E|----2--2--2----2--2--2--|--0----0----0--0----0--|----0--0--0----0--0--0--|


                                                                         
e|--0----0----0--0----0--|----0--0--0----0--0--0--|--0----0----0--0----0--|
B|--2----2----2--2----3--|----3--3--3----3--3--3--|--3----3----3--3----3--|
G|--2----2----2--2----4--|----4--4--4----4--4--4--|--0----0----0--0----0--|
D|--0----0----0--0----4--|----4--4--4----4--4--4--|--2----2----2--2----2--|
A|--x----x----x--x----2--|----2--2--2----2--2--2--|--2----2----2--2----2--|
E|--x----x----x--x----x--|----x--x--x----x--x--x--|--0----0----0--0----0--|


                                                                          
e|----0--0--0----0--0--0--|--0----0----0--0----0--|----0--0--0----0--0--0--|
B|----2--2--2----2--2--2--|--2----2----2--2----3--|----3--3--3----3--3--3--|
G|----2--2--2----2--2--2--|--2----2----2--2----4--|----4--4--4----4--4--4--|
D|----2--2--2----2--2--2--|--0----0----0--0----4--|----4--4--4----4--4--4--|
A|----0--0--0----0--0--0--|--x----x----x--x----2--|----2--2--2----2--2--2--|
E|----0--0--0----0--0--0--|--x----x----x--x----x--|----x--x--x----x--x--x--|


                                                                         
e|--0----0----0--0----0--|----0--0--0----0--0--0--|--0----0----0--0----0--|
B|--3----3----3--3----3--|----2--2--2----2--2--2--|--2----2----2--2----3--|
G|--0----0----0--0----0--|----2--2--2----2--2--2--|--2----2----2--2----4--|
D|--2----2----2--2----2--|----2--2--2----2--2--2--|--0----0----0--0----4--|
A|--2----2----2--2----2--|----0--0--0----0--0--0--|--x----x----x--x----2--|
E|--0----0----0--0----0--|----0--0--0----0--0--0--|--x----x----x--x----x--|


                                                                          
e|----0--0--0----0--0--0--|--0----0----0--0----0--|----0--0--0----0--0--0--|
B|----3--3--3----3--3--3--|--3----3----3--3----3--|----2--2--2----2--2--2--|
G|----4--4--4----4--4--4--|--0----0----0--0----0--|----2--2--2----2--2--2--|
D|----4--4--4----4--4--4--|--2----2----2--2----2--|----2--2--2----2--2--2--|
A|----2--2--2----2--2--2--|--2----2----2--2----2--|----0--0--0----0--0--0--|
E|----x--x--x----x--x--x--|--0----0----0--0----0--|----0--0--0----0--0--0--|


                                                             
e|--x----x------------|----------------x--|------x------------|
B|--3----3------------|----------------2--|------2------------|
G|--2----2------------|----------------2--|------2------------|
D|--0----0------------|----------------2--|------2------------|
A|--x----x------------|----------------0--|------0------------|
E|--3----3------------|----------------x--|------x------------|


                                                               
e|--------x----x----0--|--x----x------------|----------------x--|
B|--------3----3----3--|--3----3------------|----------------2--|
G|--------2----2----2--|--2----2------------|----------------2--|
D|--------0----0----0--|--0----0------------|----------------2--|
A|--------x----x----x--|--x----x------------|----------------0--|
E|--------2----2----3--|--3----3------------|----------------x--|


                                                               
e|------x------------|--------x----x----0--|--x----x------------|
B|------2------------|--------3----3----3--|--3----3------------|
G|------2------------|--------2----2----2--|--2----2------------|
D|------2------------|--------0----0----0--|--0----0------------|
A|------0------------|--------x----x----x--|--x----x------------|
E|------x------------|--------2----2----3--|--3----3------------|


                                                              
e|----------------x--|------x------------|--------x----x----0--|
B|----------------2--|------2------------|--------3----3----3--|
G|----------------2--|------2------------|--------2----2----2--|
D|----------------2--|------2------------|--------0----0----0--|
A|----------------0--|------0------------|--------x----x----x--|
E|----------------x--|------x------------|--------2----2----3--|


                                                             
e|--x----x------------|----------------x--|------x------------|
B|--3----3------------|----------------2--|------2------------|
G|--2----2------------|----------------2--|------2------------|
D|--0----0------------|----------------2--|------2------------|
A|--x----x------------|----------------0--|------0------------|
E|--3----3------------|----------------x--|------x------------|


                                                                   
e|--------x----x----x--|--x----x------x----x--|------x------x----x--|
B|--------3----3----3--|--3----3------3----3--|------3------3----2--|
G|--------2----2----2--|--2----2------2----2--|------2------2----2--|
D|--------0----0----0--|--0----0------0----0--|------0------0----2--|
A|--------x----x----x--|--x----x------x----x--|------x------x----0--|
E|--------2----2----2--|--3----3------3----3--|------3------3----x--|


                                                                    
e|------x------x----x--|----x----x----x----x--|--x----x------x----x--|
B|------2------2----2--|----2----3----3----3--|--3----3------3----3--|
G|------2------2----2--|----2----2----2----2--|--2----2------2----2--|
D|------2------2----2--|----2----0----0----0--|--0----0------0----0--|
A|------0------0----0--|----0----x----x----x--|--x----x------x----x--|
E|------x------x----x--|----x----2----2----2--|--3----3------3----3--|


                                                                   
e|------x------x----x--|------x------x----x--|----x----x----x----x--|
B|------3------3----2--|------2------2----2--|----2----3----3----3--|
G|------2------2----2--|------2------2----2--|----2----2----2----2--|
D|------0------0----2--|------2------2----2--|----2----0----0----0--|
A|------x------x----0--|------0------0----0--|----0----x----x----x--|
E|------3------3----x--|------x------x----x--|----x----2----2----2--|


                                                                   
e|--x----x------x----x--|------x------x----x--|------x------x----x--|
B|--3----3------3----3--|------3------3----2--|------2------2----2--|
G|--2----2------2----2--|------2------2----2--|------2------2----2--|
D|--0----0------0----0--|------0------0----2--|------2------2----2--|
A|--x----x------x----x--|------x------x----0--|------0------0----0--|
E|--3----3------3----3--|------3------3----x--|------x------x----x--|


                                                                    
e|----x----x----x----x--|--x----x------x----x--|------x------x----x--|
B|----2----3----3----3--|--3----3------3----3--|------3------3----2--|
G|----2----2----2----2--|--2----2------2----2--|------2------2----2--|
D|----2----0----0----0--|--0----0------0----0--|------0------0----2--|
A|----0----x----x----x--|--x----x------x----x--|------x------x----0--|
E|----x----2----2----2--|--3----3------3----3--|------3------3----x--|


                                                                    
e|------x------x----x--|----x----x----x----x--|--x----x------x----x--|
B|------2------2----2--|----2----3----3----3--|--3----3------3----3--|
G|------2------2----2--|----2----2----2----2--|--2----2------2----2--|
D|------2------2----2--|----2----0----0----0--|--0----0------0----0--|
A|------0------0----0--|----0----x----x----x--|--x----x------x----x--|
E|------x------x----x--|----x----2----2----2--|--3----3------3----3--|


                                                                   
e|------x------x----x--|------x------x----x--|----x----x----x----x--|
B|------3------3----2--|------2------2----2--|----2----3----3----3--|
G|------2------2----2--|------2------2----2--|----2----2----2----2--|
D|------0------0----2--|------2------2----2--|----2----0----0----0--|
A|------x------x----0--|------0------0----0--|----0----x----x----x--|
E|------3------3----x--|------x------x----x--|----x----2----2----2--|


                                                                   
e|--x----x------x----x--|------x------x----x--|------x------x----x--|
B|--3----3------3----3--|------3------3----2--|------2------2----2--|
G|--2----2------2----2--|------2------2----2--|------2------2----2--|
D|--0----0------0----0--|------0------0----2--|------2------2----2--|
A|--x----x------x----x--|------x------x----0--|------0------0----0--|
E|--3----3------3----3--|------3------3----x--|------x------x----x--|


                                                                    
e|----x----x----x----x--|--x----x------x----x--|------x------x----x--|
B|----2----3----3----3--|--3----3------3----3--|------3------3----2--|
G|----2----2----2----2--|--2----2------2----2--|------2------2----2--|
D|----2----0----0----0--|--0----0------0----0--|------0------0----2--|
A|----0----x----x----x--|--x----x------x----x--|------x------x----0--|
E|----x----2----2----2--|--3----3------3----3--|------3------3----x--|


                                                                    
e|------x------x----x--|----x----x----x----x--|--x----x------x----x--|
B|------2------2----2--|----2----3----3----3--|--3----3------3----3--|
G|------2------2----2--|----2----2----2----2--|--2----2------2----2--|
D|------2------2----2--|----2----0----0----0--|--0----0------0----0--|
A|------0------0----0--|----0----x----x----x--|--x----x------x----x--|
E|------x------x----x--|----x----2----2----2--|--3----3------3----3--|


                                                                   
e|------x------x----x--|------x------x----x--|----x----x----x----x--|
B|------3------3----2--|------2------2----2--|----2----3----3----3--|
G|------2------2----2--|------2------2----2--|----2----2----2----2--|
D|------0------0----2--|------2------2----2--|----2----0----0----0--|
A|------x------x----0--|------0------0----0--|----0----x----x----x--|
E|------3------3----x--|------x------x----x--|----x----2----2----2--|


                                                                   
e|--x----x------x----x--|------x------x----x--|------x------x----x--|
B|--3----3------3----3--|------3------3----2--|------2------2----2--|
G|--2----2------2----2--|------2------2----2--|------2------2----2--|
D|--0----0------0----0--|------0------0----2--|------2------2----2--|
A|--x----x------x----x--|------x------x----0--|------0------0----0--|
E|--3----3------3----3--|------3------3----x--|------x------x----x--|


                                                                    
e|----x----x----x----x--|--x----x------x----x--|------x------x----x--|
B|----2----3----3----3--|--3----3------3----3--|------3------3----2--|
G|----2----2----2----2--|--2----2------2----2--|------2------2----2--|
D|----2----0----0----0--|--0----0------0----0--|------0------0----2--|
A|----0----x----x----x--|--x----x------x----x--|------x------x----0--|
E|----x----2----2----2--|--3----3------3----3--|------3------3----x--|


                                                                    
e|------x------x----x--|----x----x----x----x--|--x----x------x----x--|
B|------2------2----2--|----2----3----3----3--|--3----3------3----3--|
G|------2------2----2--|----2----2----2----2--|--2----2------2----2--|
D|------2------2----2--|----2----0----0----0--|--0----0------0----0--|
A|------0------0----0--|----0----x----x----x--|--x----x------x----x--|
E|------x------x----x--|----x----2----2----2--|--3----3------3----3--|


                                                                   
e|------x------x----x--|------x------x----x--|----x----x----x----x--|
B|------3------3----2--|------2------2----2--|----2----3----3----3--|
G|------2------2----2--|------2------2----2--|----2----2----2----2--|
D|------0------0----2--|------2------2----2--|----2----0----0----0--|
A|------x------x----0--|------0------0----0--|----0----x----x----x--|
E|------3------3----x--|------x------x----x--|----x----2----2----2--|


                                                                   
e|--x----x------x----x--|------x------x----x--|------x------x----x--|
B|--3----3------3----3--|------3------3----2--|------2------2----2--|
G|--2----2------2----2--|------2------2----2--|------2------2----2--|
D|--0----0------0----0--|------0------0----2--|------2------2----2--|
A|--x----x------x----x--|------x------x----0--|------0------0----0--|
E|--3----3------3----3--|------3------3----x--|------x------x----x--|


                                                                    
e|----x----x----x----x--|--x----x------x----x--|------x------x----x--|
B|----2----3----3----3--|--3----3------3----3--|------3------3----2--|
G|----2----2----2----2--|--2----2------2----2--|------2------2----2--|
D|----2----0----0----0--|--0----0------0----0--|------0------0----2--|
A|----0----x----x----x--|--x----x------x----x--|------x------x----0--|
E|----x----2----2----2--|--3----3------3----3--|------3------3----x--|


                                                                    
e|------x------x----x--|----x----x----x----x--|--x----x------x----x--|
B|------2------2----2--|----2----3----3----3--|--3----3------3----3--|
G|------2------2----2--|----2----2----2----2--|--2----2------2----2--|
D|------2------2----2--|----2----0----0----0--|--0----0------0----0--|
A|------0------0----0--|----0----x----x----x--|--x----x------x----x--|
E|------x------x----x--|----x----2----2----2--|--3----3------3----3--|


                                                                   
e|------x------x----x--|------x------x----x--|----x----x----x----x--|
B|------3------3----2--|------2------2----2--|----2----3----3----3--|
G|------2------2----2--|------2------2----2--|----2----2----2----2--|
D|------0------0----2--|------2------2----2--|----2----0----0----0--|
A|------x------x----0--|------0------0----0--|----0----x----x----x--|
E|------3------3----x--|------x------x----x--|----x----2----2----2--|


                                                                   
e|--x----x------x----x--|------x------x----x--|------x------x----x--|
B|--3----3------3----3--|------3------3----2--|------2------2----2--|
G|--2----2------2----2--|------2------2----2--|------2------2----2--|
D|--0----0------0----0--|------0------0----2--|------2------2----2--|
A|--x----x------x----x--|------x------x----0--|------0------0----0--|
E|--3----3------3----3--|------3------3----x--|------x------x----x--|


                                                                    
e|----x----x----x----x--|--x----x------x----x--|------x------x----x--|
B|----2----3----3----3--|--3----3------3----3--|------3------3----2--|
G|----2----2----2----2--|--2----2------2----2--|------2------2----2--|
D|----2----0----0----0--|--0----0------0----0--|------0------0----2--|
A|----0----x----x----x--|--x----x------x----x--|------x------x----0--|
E|----x----2----2----2--|--3----3------3----3--|------3------3----x--|


                                                                    
e|------x------x----x--|----x----x----x----x--|--x----x------x----x--|
B|------2------2----2--|----2----3----3----3--|--3----3------3----3--|
G|------2------2----2--|----2----2----2----2--|--2----2------2----2--|
D|------2------2----2--|----2----0----0----0--|--0----0------0----0--|
A|------0------0----0--|----0----x----x----x--|--x----x------x----x--|
E|------x------x----x--|----x----2----2----2--|--3----3------3----3--|


                                                                   
e|------x------x----x--|------x------x----x--|----x----x----x----x--|
B|------3------3----2--|------2------2----2--|----2----3----3----3--|
G|------2------2----2--|------2------2----2--|----2----2----2----2--|
D|------0------0----2--|------2------2----2--|----2----0----0----0--|
A|------x------x----0--|------0------0----0--|----0----x----x----x--|
E|------3------3----x--|------x------x----x--|----x----2----2----2--|


                                                                   
e|--x----x------x----x--|------x------x----x--|------x------x----x--|
B|--3----3------3----3--|------3------3----2--|------2------2----2--|
G|--2----2------2----2--|------2------2----2--|------2------2----2--|
D|--0----0------0----0--|------0------0----2--|------2------2----2--|
A|--x----x------x----x--|------x------x----0--|------0------0----0--|
E|--3----3------3----3--|------3------3----x--|------x------x----x--|


                                                                    
e|----x----x----x----x--|--x----x------x----x--|------x------x----x--|
B|----2----3----3----3--|--3----3------3----3--|------3------3----2--|
G|----2----2----2----2--|--2----2------2----2--|------2------2----2--|
D|----2----0----0----0--|--0----0------0----0--|------0------0----2--|
A|----0----x----x----x--|--x----x------x----x--|------x------x----0--|
E|----x----2----2----2--|--3----3------3----3--|------3------3----x--|


                                                                    
e|------x------x----x--|----x----x----x----x--|--x----x------x----x--|
B|------2------2----2--|----2----3----3----3--|--3----3------3----3--|
G|------2------2----2--|----2----2----2----2--|--2----2------2----2--|
D|------2------2----2--|----2----0----0----0--|--0----0------0----0--|
A|------0------0----0--|----0----x----x----x--|--x----x------x----x--|
E|------x------x----x--|----x----2----2----2--|--3----3------3----3--|


                                                                   
e|------x------x----x--|------x------x----x--|----x----x----x----x--|
B|------3------3----2--|------2------2----2--|----2----3----3----3--|
G|------2------2----2--|------2------2----2--|----2----2----2----2--|
D|------0------0----2--|------2------2----2--|----2----0----0----0--|
A|------x------x----0--|------0------0----0--|----0----x----x----x--|
E|------3------3----x--|------x------x----x--|----x----2----2----2--|


                                                                   
e|--x----x------x----x--|------x------x----x--|------x------x----x--|
B|--3----3------3----3--|------3------3----2--|------2------2----2--|
G|--2----2------2----2--|------2------2----2--|------2------2----2--|
D|--0----0------0----0--|------0------0----2--|------2------2----2--|
A|--x----x------x----x--|------x------x----0--|------0------0----0--|
E|--3----3------3----3--|------3------3----x--|------x------x----x--|


                                                                    
e|----x----x----x----x--|--x----x------x----x--|------x------x----x--|
B|----2----3----3----3--|--3----3------3----3--|------3------3----2--|
G|----2----2----2----2--|--2----2------2----2--|------2------2----2--|
D|----2----0----0----0--|--0----0------0----0--|------0------0----2--|
A|----0----x----x----x--|--x----x------x----x--|------x------x----0--|
E|----x----2----2----2--|--3----3------3----3--|------3------3----x--|


                                                                    
e|------x------x----x--|----x----x----x----x--|--x----x------x----x--|
B|------2------2----2--|----2----3----3----3--|--3----3------3----3--|
G|------2------2----2--|----2----2----2----2--|--2----2------2----2--|
D|------2------2----2--|----2----0----0----0--|--0----0------0----0--|
A|------0------0----0--|----0----x----x----x--|--x----x------x----x--|
E|------x------x----x--|----x----2----2----2--|--3----3------3----3--|


                                                                   
e|------x------x----x--|------x------x----x--|----x----x----x----x--|
B|------3------3----2--|------2------2----2--|----2----3----3----3--|
G|------2------2----2--|------2------2----2--|----2----2----2----2--|
D|------0------0----2--|------2------2----2--|----2----0----0----0--|
A|------x------x----0--|------0------0----0--|----0----x----x----x--|
E|------3------3----x--|------x------x----x--|----x----2----2----2--|


                                                                   
e|--x----x------x----x--|------x------x----x--|------x------x----x--|
B|--3----3------3----3--|------3------3----2--|------2------2----2--|
G|--2----2------2----2--|------2------2----2--|------2------2----2--|
D|--0----0------0----0--|------0------0----2--|------2------2----2--|
A|--x----x------x----x--|------x------x----0--|------0------0----0--|
E|--3----3------3----3--|------3------3----x--|------x------x----x--|


                                                                    
e|----x----x----x----x--|--x----x------x----x--|------x------x----x--|
B|----2----3----3----3--|--3----3------3----3--|------3------3----2--|
G|----2----2----2----2--|--2----2------2----2--|------2------2----2--|
D|----2----0----0----0--|--0----0------0----0--|------0------0----2--|
A|----0----x----x----x--|--x----x------x----x--|------x------x----0--|
E|----x----2----2----2--|--3----3------3----3--|------3------3----x--|


                                                                    
e|------x------x----x--|----x----x----x----x--|--x----x------x----x--|
B|------2------2----2--|----2----3----3----3--|--3----3------3----3--|
G|------2------2----2--|----2----2----2----2--|--2----2------2----2--|
D|------2------2----2--|----2----0----0----0--|--0----0------0----0--|
A|------0------0----0--|----0----x----x----x--|--x----x------x----x--|
E|------x------x----x--|----x----2----2----2--|--3----3------3----3--|


                                                                   
e|------x------x----x--|------x------x----x--|----x----x----x----x--|
B|------3------3----2--|------2------2----2--|----2----3----3----3--|
G|------2------2----2--|------2------2----2--|----2----2----2----2--|
D|------0------0----2--|------2------2----2--|----2----0----0----0--|
A|------x------x----0--|------0------0----0--|----0----x----x----x--|
E|------3------3----x--|------x------x----x--|----x----2----2----2--|


                                                                   
e|--x----x------x----x--|------x------x----x--|------x------x----x--|
B|--3----3------3----3--|------3------3----2--|------2------2----2--|
G|--2----2------2----2--|------2------2----2--|------2------2----2--|
D|--0----0------0----0--|------0------0----2--|------2------2----2--|
A|--x----x------x----x--|------x------x----0--|------0------0----0--|
E|--3----3------3----3--|------3------3----x--|------x------x----x--|


                                                                    
e|----x----x----x----x--|--x----x------x----x--|------x------x----x--|
B|----2----3----3----3--|--3----3------3----3--|------3------3----2--|
G|----2----2----2----2--|--2----2------2----2--|------2------2----2--|
D|----2----0----0----0--|--0----0------0----0--|------0------0----2--|
A|----0----x----x----x--|--x----x------x----x--|------x------x----0--|
E|----x----2----2----2--|--3----3------3----3--|------3------3----x--|


                                                                    
e|------x------x----x--|----x----x----x----x--|--x----x------x----x--|
B|------2------2----2--|----2----3----3----3--|--3----3------3----3--|
G|------2------2----2--|----2----2----2----2--|--2----2------2----2--|
D|------2------2----2--|----2----0----0----0--|--0----0------0----0--|
A|------0------0----0--|----0----x----x----x--|--x----x------x----x--|
E|------x------x----x--|----x----2----2----2--|--3----3------3----3--|


                                                                   
e|------x------x----x--|------x------x----x--|----x----x----x----x--|
B|------3------3----2--|------2------2----2--|----2----3----3----3--|
G|------2------2----2--|------2------2----2--|----2----2----2----2--|
D|------0------0----2--|------2------2----2--|----2----0----0----0--|
A|------x------x----0--|------0------0----0--|----0----x----x----x--|
E|------3------3----x--|------x------x----x--|----x----2----2----2--|


                                                                   
e|--x----x------x----x--|------x-----------x--|------x------x----x--|
B|--3----3------3----3--|------3-----------2--|------2------2----2--|
G|--2----2------2----2--|------2-----------2--|------2------2----2--|
D|--0----0------0----0--|------0-----------2--|------2------2----2--|
A|--x----x------x----x--|------x-----------0--|------0------0----0--|
E|--3----3------3----3--|------3------3----x--|------x------x----x--|


                                                                     
e|----x----x----x----x--|----------------------|----------------------|
B|----2----3----3----3--|-----------3----------|-------------3--------|
G|----2----2----2----2--|--------2-------------|----------2-----------|
D|----2----0----0----0--|-----0----------------|-------0--------------|
A|----0----x----x----x--|----------------------|----------------------|
E|----x----2----2----2--|--3-------------------|----3-----------------|


                                        
e|-------------------|------------------||
B|--2~---------------|------------------||
G|--2~---------------|------------------||
D|--2~---------------|------------------||
A|--0~---------------|------------------||
E|-------------------|------------------||


************************************

| ^  Bend
| /  slide up
| \  slide down
| h  hammer-on
| p  pull-off
| ~  vibrato
| +  harmonic
| x  Mute note
| w  Wah Wah

************************************


Ultimate-Guitar.Com Ultimate-Guitar.Com Ultimate-Guitar.Com Ultimate-Guitar.Com
===============================================================================
Suggest correction
comments
print report bad tab
19 comments total. Showing first comments.
+1 reply
turn_it_upto_11 10 Aug 20, 2005 12:00 AM

I'm glad someone finally tabbed this song. I LOVE it.

0 reply
s_anquetil 15 Dec 16, 2005 02:32 AM

same its an awsome song

+1 reply
purecork 10 May 01, 2007 08:40 AM

tanks for the tab. im a majour satch fan, this is my fav song ever. love the joe!

COME TO IRELAND JOE !!!! im going to see Vai in july :]

satch is my fav guitarist though :D!

guest
You may want to rate the tab now too:
select rating
Wanna post a correction for this tab? Suggest correction