Oops, an error
Loading. Please wait.

Lights Of Heaven Tab

version 1
version 1

Whole song

Interactive

7,466 views 12 this week
5 commentsread comments
1 2 3 4 5
accurate
x 6
add to favorites
launch autoscroll
font size
0
reset
how to read this tab
guitar tuner
Autoscroll
slow
fast
+/-
esc
set tempo
stop
Help us to improve Ultimate-Guitar.com Take our survey!
×
Contributor
Difficulty
Flash33 59
intermediate
This is a great song, and one of my favorites to play... its fairly easy and shouldn't 
too long to memorize so here goes!

Guitar 1 Clean Tone with Chorus
Guitar 2 Distortion max

Guitar 1
e||------------------------------------------------------------------|
B||10/12--12-12--12\10--x--x-8--x--x---------------------------------|
G||----------------------------------11-11-11--11-11/9--9--9--9--9---|
D||7/9----9--9---9\7----x--x-5--x--x---------------------------------|
A||----------------------------------9--9---9--9--9/7---7--7--7--7---|
E||------------------------------------------------------------------|

e||-------------------------------------------------------|
B||-------------------------------------------------------|
G||-2/4\2-------------------------------------------------|
D||--------5/7\5--4---------------------------------------|
A||-------------------------------------------------------|
E||-------------------------------------------------------|

thats more or less the soft part, now im just going to do the distorted part

Guitar 2  Repeat 3x
Riff 1
e||-------------------------------------------------------------------|
B||----------------------------------------------------------0--------|
G||---9--9--9--9--9--9--9----9--9--9--9-9-9--9--9-9--9----7--9--------|
D||9--9--9--9--7--7--7--7h9--9--9--9--7-7-7--7--7-7--7----7-----------|
A||7--7--7--7--7--7--7--7----7--7--7----------------------------------|
E||-----------------------------------8-8-8--7--7-7--7----------------|

Riff 2
e||--------------------------------------------------------------------|
B||---------------------------15--17-----------------------------------|
G||12--14p12-14/16--16-16--16--------14-12--11--11b12r11b12r11/9--9~~~-|
D||--------------------------------------------------------------------|
A||--------------------------------------------------------------------|
E||--------------------------------------------------------------------|
repeat riff 2 twice then go to riff 3

Riff 3
e||--------------------------------------------------------------------|
B||---------------------------15--17-----------------------------------|
G||12--14p12-14/16--16-16--16--------14-12--11--11b12r11b12r11---------|
D||------------------------------------------------------------12/14---|
A||--------------------------------------------------------------------|
E||--------------------------------------------------------------------|

e||--------------------------------------------------------------------|
B||--------------------------------------17p15----17--15---------------|
G||--------------9/11/12/14--/16-14---16-------16--------14--14\7------|
D||14\12--12\9---------------------------------------------------------|
A||--------------------------------------------------------------------|
E||--------------------------------------------------------------------|

e||---------------------------------------------------------------------|
B||-----------------------17------15------------------------------15-17-|
G||9/11/12/14--/16-14--16-----14-----14\12-14p12-14/16-16---16-16-------|
D||---------------------------------------------------------------------|
A||---------------------------------------------------------------------|
E||---------------------------------------------------------------------|

e||-----------------------------------19b20r19--17---------------------|
B||-----------------------------------------------19b20r19--19--17--19-|
G||14--12-11-11b12r11b12r11--11/9--9-----------------------------------|
D||--------------------------------------------------------------------|
A||--------------------------------------------------------------------|
E||--------------------------------------------------------------------|

e||19b20r19--17-----------------19b20r19--17----------------------------|
B||-------------19b20r19--17-----------------19b20r19--19--17--19b20r19-|
G||--------------------------16-----------------------------------------|
D||---------------------------------------------------------------------|
A||---------------------------------------------------------------------|
E||---------------------------------------------------------------------|

e||17b19--17---17b19p15---17~~~----------------------------------------|
B||--------------------------------0---0----0---0---0---0--------------|
G||----------------------------------11---11---7---6---6---------------|
D||------------------------------9--9----9----5---4---4----4\----------|
A||--------------------------------------------------------------------|
E||--------------------------------------------------------------------|

Solo Time!  keep it up!!
e||--------------17--17-15p12--12h15p12--12---------------12-----------|
B||--17b20---17--------------15--------15---12h15p12--------12---------|
G||-------------------------------------------------14b16-----14b16p12-|
D||--------------------------------------------------------------------|
A||--------------------------------------------------------------------|
E||0-------------------------------------------------------------------|

e||----------------------------------------------3h5h7p5p3-------------|
B||--------------------------------------3--3h5h7---------7-3-5h7p5p3--|
G||14----12-11b12r11-\9\7/9\7/9\7/4--/4\--6----------------------------|
D||---14---------------------------------------------------------------|
A||--------------------------------------------------------------------|
E||--------------------------------------------------------------------|

this part may look tough but its fairly easy if you have the fingering right
e||--------------------------------------------------------------------|
B||--------------------------------------------------------------------|
G||7p5p4h5h7p5p4/5-h7-h9p7p5-------------------------------------------|
D||--------------------------9-7-5\4h-5h7p5p4\5h7h9p7p5----------------|
A||-----------------------------------------------------5/7--9--10-----|
E||--------------------------------------------------------------------|

e||-------------------------------------------14------14-15------------|
B||----------------------8-10h12--/15--15--17----15-17-----------15-17-|
G||--------7-9-11-7-9-11------------------------------------16h17------|
D||7--9-10-------------------------------------------------------------|
A||--------------------------------------------------------------------|
E||--------------------------------------------------------------------|

e||14-15----14-15-17-14/15-17-19-15-17---15--------------17b19p15------|
B||------17----------------------------19---19-17p15-15-----------17---|
G||--------------------------------------------------------------------|
D||--------------------------------------------------------------------|
A||--------------------------------------------------------------------|
E||--------------------------------------------------------------------|

e||12-14h15-12-14b15r14--12--12----------------------------------------|
B||------------------------15--15-13p12-15-----------------------------|
G||----------------------------------------14b16r14p12-----------------|
D||----------------------------------------------------14-12-----------|
A||---------------------------------------------------------14-12-10---|
E||--------------------------------------------------------------------|

e||---------------------------------------------------------------|
B||--------------------12b14r12--10-------------------------------|
G||---------------------------------11b13r11-11--9--11b13---------|
D||---------------------------------------------------------------|
A||---------10h12--12---------------------------------------------|
E||12-10-12-------------------------------------------------------|

e||20p19p0-19p17p0-17p15p0-19p17p0-17p15p0-15p14p0-17p15p0-15p14p0------------|
B||---------------------------------------------------------------------------|
G||---------------------------------------------------------------------------|
D||-----------------------------------------------------------------     A||--|
E||---------------------------------------------------------------------------|

e||14p12p0-15p14p0-14p12p0-12p10/9-------12-10p0-10p8p7---------8-7p0--|
B||--------------------------------12-10----------------10--8p7--------|
G||--------------------------------------------------------------------|
D||--------------------------------------------------------------------|
A||--------------------------------------------------------------------|
E||--------------------------------------------------------------------|

e||---7-5p0-----------------------------------------------|
B||7p0------7-5p0-----------------------------------------|
G||-------------------------------------------------------|
D||-------------------------------------------------------|
A||-------------------------------------------------------|
E||-------------------------------------------------------|

thats all i got for now, i should have the rest up pretty soon, but practice this for now!
comments
print report bad tab
5 comments total. Showing first comments.
+2 reply
eklipt 26 wrote on September 24 2007, 02:43 pm

Awesome tab, must have taken a while. Its too bad sach doesnt have more listeners. People would rather learn hey there delilah then this. O well though 5*

0 reply
mjj4 39 wrote on December 17 2007, 01:14 pm

yehh tell me about it..

great song and great tab.. thanks man 5*

0 reply
|Guitarhead| 658 wrote on March 29 2009, 09:44 am

very incomplete "thats pretty much the soft part" not really...

I want to post or [tab]
guest
You may want to rate the tab now too:
select rating
Please do not post tabs as comments. Select "correction" instead!