Oops, an error
Loading. Please wait.
We have an official Midnight tab made by UG professional guitarists. Check out the tab »
×
58 views 1 this week
no commentswrite comment
1 2 3 4 5
2 more votes to show rating
add to favorites
×
Save as Personal and add changes to this tab that will be seen only by you. Learn more ›
×
You can save this tab as Personal to edit and correct it or add notes. All changes will be seen only by you. Learn more »
launch autoscroll
font size
0
reset
how to read this tab
guitar tuner
edit
Autoscroll
slow
fast
+/-
esc
set tempo
stop
Difficulty
intermediate
About this tab version
Tabbed the way Joe plays it. Was this info helpful? Yes No
This is the whole song in full notation without repeats, Played the way Joe plays it as seen in this clip but 
without the second bridge.
https://www.youtube.com/watch?v=LKxFKqm3WoE
Legend of the Fingers
R1 - Right Hand Index
R4 - Right Hand Little
L1 - Left Hand Index
L4 - Left Hand Little

    L1 L3  R2 R1  (simile)
e|-------------------------------------------------------------|
B|---------12------------12----------------12------------12----|
G|-------------------------------------------------------------|
D|------------12-------------12---------------12------------12-|
A|------9------------9-----------------9--------------9--------|
E|---7------------7-----------------7--------------7-----------|

    L1  L2  R2 R1   (simile)
e|-------------------------------------------------------------------|
B|----------14--------------14---------------14--------------14------|
G|-------------------------------------------------------------------|
D|------11-----14-------11-----14---------11-----14-------11-----14--|
A|---10---------------10---------------10--------------10------------|
E|-------------------------------------------------------------------|

    L1 L3  R2 R1  (simile)
e|-------------------------------------------------------------|
B|---------12------------12----------------12------------12----|
G|-------------------------------------------------------------|
D|------------12-------------12---------------12------------12-|
A|------9------------9-----------------9--------------9--------|
E|---7------------7-----------------7--------------7-----------|

    L1  L2  R2 R1   (simile)        L1  L2  R2 R1   L1 L2 R2  R1
e|--------------------------------------------14--------------14------|
B|----------14---------------14---------------------------------------|
G|------------------------------------------------14--------------14--|
D|------11-----14--------11-----14---------11--------------11---------|
A|---10---------------10---------------10--------------10-------------|
E|--------------------------------------------------------------------|

    L1 L3  R2 R1  (simile)
e|-------------------------------------------------------------|
B|---------12------------12----------------12------------12----|
G|-------------------------------------------------------------|
D|------------12-------------12---------------12------------12-|
A|------9------------9-----------------9--------------9--------|
E|---7------------7-----------------7--------------7-----------|

     L1 L3 R2 R1  (simile)
e|---------12------------12----------------12---------------12-----|
B|-----------------------------------------------------------------|
G|-------------12------------12-----------------12-------------12--|
D|-------9------------9------------------9---------------9---------|
A|---7------------7-----------------7--------------7---------------|
E|-----------------------------------------------------------------|

   L1 L2 R2 R1  (simile)
e|---------------------------------------------------|
B|-------12----------12-----------12----------12-----|
G|----9-----------9------------9-----------9---------|
D|----------12-----------12----------12----------12--|
A|--9-----------9------------9-----------9-----------|
E|---------------------------------------------------|

   L1 L2 R2 R1  (simile)
e|------------------------------------------|
B|-------11----------11-----------11--------|
G|----9-----------9------------9------------|
D|----------11-----------11----------11-----|
A|--9-----------9------------9-----------9~-|
E|------------------------------------------|

    L1 L3  R2 R1  (simile)
e|-------------------------------------------------------------|
B|---------12------------12----------------12------------12----|
G|-------------------------------------------------------------|
D|------------12-------------12---------------12------------12-|
A|------9------------9-----------------9--------------9--------|
E|---7------------7-----------------7--------------7-----------|

    L1  L2  R2 R1   (simile)
e|-------------------------------------------------------------------|
B|----------14--------------14---------------14--------------14------|
G|-------------------------------------------------------------------|
D|------11-----14-------11-----14---------11-----14-------11-----14--|
A|---10---------------10---------------10--------------10------------|
E|-------------------------------------------------------------------|

    L1 L3  R2 R1  (simile)
e|-------------------------------------------------------------|
B|---------12------------12----------------12------------12----|
G|-------------------------------------------------------------|
D|------------12-------------12---------------12------------12-|
A|------9------------9-----------------9--------------9--------|
E|---7------------7-----------------7--------------7-----------|

   L1 L2 R2 R1  (simile)
e|-------14------------14-----------12----------12----------|
B|----------------------------------------------------------|
G|-----------14------------14-----------12------------12----|
D|----11------------11------------11------------11----------|
A|--10------------10------------10------------10------------|
E|----------------------------------------------------------|

    L1 L3  R2 R1  (simile)
e|-------------------------------------------------------------|
B|---------12------------12----------------12------------12----|
G|-------------------------------------------------------------|
D|------------12-------------12---------------12------------12-|
A|------9------------9-----------------9--------------9--------|
E|---7------------7-----------------7--------------7-----------|

     L1 L3 R2 R1  (simile)
e|---------12------------12----------------12---------------12-----|
B|-----------------------------------------------------------------|
G|-------------12------------12-----------------12-------------12--|
D|-------9------------9------------------9---------------9---------|
A|---7------------7-----------------7--------------7---------------|
E|-----------------------------------------------------------------|

   L1 L2 R2 R1  (simile)
e|---------------------------------------------------|
B|-------12----------12-----------12----------12-----|
G|----9-----------9------------9-----------9---------|
D|----------12-----------12----------12----------12--|
A|--9-----------9------------9-----------9-----------|
E|---------------------------------------------------|

   L1 L2 R2 R1  (simile)
e|------------------------------------------|
B|-------11----------11-----------11--------|
G|----9-----------9------------9------------|
D|----------11-----------11----------11-----|
A|--9-----------9------------9-----------9~-|
E|------------------------------------------|

Start clapping
(The left hand chords are almost entirely octaves apart if it makes this part any easier)
   L3  R2  L3
   L1  R1  L1     (simile)
e|-----12-----12--12-----12-----12--12-------11-----11--11-----11-----11--11-|
B|---------------------------------------------------------------------------|
G|-----12-----12--12-----12-----12--12-------11-----11--11-----11-----11--11-|
D|--9------9----------9------9------------9------9----------9------9---------|
A|---------------------------------------------------------------------------|
E|--7------7----------7------7------------7------7----------7------7---------|

e|-----12-----12--12-----12-----12--12-------11-----11--11-----11-----11--11-|
B|---------------------------------------------------------------------------|
G|-----12-----12--12-----12-----12--12-------11-----11--11-----11-----11--11-|
D|--9------9----------9------9------------9------9----------9------9---------|
A|---------------------------------------------------------------------------|
E|--7------7----------7------7------------7------7----------7------7---------|

e|-----15-----15--15-----15-----15--15-------14-----14--14-----14-----14--14-|
B|---------------------------------------------------------------------------|
G|-----15-----15--15-----15-----15--15-------14-----14--14-----14-----14--14-|
D|--12-----12---------12-----12-----------12-----12---------12-----12--------|
A|---------------------------------------------------------------------------|
E|--10-----10---------10-----10-----------10-----10---------10-----10--------|

e|-----15-----15--15-----15-----15--15-------14-----14--14-----14-----14--14-|
B|---------------------------------------------------------------------------|
G|-----15-----15--15-----15-----15--15-------14-----14--14-----14-----14--14-|
D|--12-----12---------12-----12-----------12-----12---------12-----12--------|
A|---------------------------------------------------------------------------|
E|--10-----10---------10-----10-----------10-----10---------10-----10--------|

e|-----17-----17--17-----17-----17--17-------15-----15--15-----15-----15--15-|
B|---------------------------------------------------------------------------|
G|-----17-----17--17-----17-----17--17-------16-----16--16-----16-----16--16-|
D|--14-----14---------14-----14-----------14-----14---------14-----14--------|
A|---------------------------------------------------------------------------|
E|--12-----12---------12-----12-----------12-----12---------12-----12--------|

e|-----17-----17--17-----17-----17--17-------15-----15--15-----15-----15--15-|
B|---------------------------------------------------------------------------|
G|-----17-----17--17-----17-----17--17-------16-----16--16-----16-----16--16-|
D|--14-----14---------14-----14-----------14-----14---------14-----14--------|
A|---------------------------------------------------------------------------|
E|--12-----12---------12-----12-----------12-----12---------12-----12--------|

e|-----19-----19--19-----19-----19--19-----19-----19--19-----21-----21--21---|
B|---------------------------------------------------------------------------|
G|-----19-----19--19-----19-----19--19-----19-----19--19-----21-----21--21---|
D|--16-----16---------16-----16---------16-----16---------16-----16----------|
A|---------------------------------------------------------------------------|
E|--14-----14---------14-----14---------14-----14---------14-----14----------|

e|-----18-----18--18-----18-----18--18-----18-----18--18-----18-----18--18---|
B|---------------------------------------------------------------------------|
G|-----18-----18--18-----18-----18--18-----18-----18--18-----18-----18--18---|
D|--16-----16---------16-----16---------16-----16---------16-----16--------16|
A|---------------------------------------------------------------------------|
E|--14-----14---------14-----14---------14-----14---------14-----14--------14|

R2 L2 R2
R1 L1 R1      (simile)
e|-----------------------------------------------------------------|
B|-------12--------12--------12--------12-------12---------12------|
G|--11--------11--------11-------11---------11-------11------------|
D|-------12--------12--------12--------12-------12---------12------|
A|--10--------10--------10-------10---------10-------10------------|
E|-----------------------------------------------------------------|

e|-----------------------------------------------------------------|
B|-------14--------14--------14--------14-------14---------14------|
G|--11--------11--------11-------11---------11-------11------------|
D|-------14--------14--------14--------14-------14---------14------|
A|--10--------10--------10-------10---------10-------10------------|
E|-----------------------------------------------------------------|

e|-----------------------------------------------------------------|
B|-------15--------15--------15--------15-------15---------15------|
G|--11--------11--------11-------11---------11-------11------------|
D|-------16--------16--------16--------16-------16---------16------|
A|--10--------10--------10-------10---------10-------10------------|
E|-----------------------------------------------------------------|

e|-----------------------------------------------------------------|
B|-------17--------17--------17--------17-------17---------17------|
G|--11--------11--------11-------11---------11-------11------------|
D|-------17--------17--------17--------17-------17---------17------|
A|--10--------10--------10-------10---------10-------10------------|
E|-----------------------------------------------------------------|

e|-------------------------------------------------------------|
B|-------11--------11---------11--------11--------11--------11-|
G|--9---------9----------9----------9--------9----------9------|
D|-------11--------11---------11--------11--------11--------11-|
A|--9---------9----------9----------9--------9----------9------|
E|-------------------------------------------------------------|

e|-------------------------------------------------------------|
B|-------12--------12---------12--------12--------12--------12-|
G|--9---------9----------9----------9--------9----------9------|
D|-------12--------12---------12--------12--------12--------12-|
A|-------------------------------------------------------------|
E|--8---------8----------8----------8--------8----------8------|

e|-------------------------------------------------------------|
B|-------11--------11---------11--------11--------11--------11-|
G|--9---------9----------9----------9--------9----------9------|
D|-------11--------11---------11--------11--------11--------11-|
A|--9---------9----------9----------9--------9----------9------|
E|-------------------------------------------------------------|

e|-------------------------------------------------------------------|
B|-------12---------12--------12----------12----------12--------12---|
G|--11---------11--------11---------11----------11---------11--------|
D|-------12---------12--------12----------12----------12--------12---|
A|--10---------10--------10---------10----------10---------10--------|
E|-------------------------------------------------------------------|

e|-------------------------------------------------------------------|
B|-------11---------11--------11----------11----------11--------11---|
G|--9----------9---------9----------9-----------9----------9---------|
D|-------11---------11--------11----------11----------11--------11---|
A|--9----------9---------9----------9-----------9----------9---------|
E|-------------------------------------------------------------------|

e|-------------------------------------------------------------------|
B|-------12---------12--------12----------12----------12--------12---|
G|--11---------11--------11---------11----------11---------11--------|
D|-------12---------12--------12----------12----------12--------12---|
A|--10---------10--------10---------10----------10---------10--------|
E|-------------------------------------------------------------------|

e|-------------------------------------------------------------------|
B|-------11---------11--------11----------11----------11--------11---|
G|--9----------9---------9----------9-----------9----------9---------|
D|-------11---------11--------11----------11----------11--------11---|
A|--9----------9---------9----------9-----------9----------9---------|
E|-------------------------------------------------------------------|

e|-------------------------------------------------------------------|
B|-------12---------12--------12----------12----------12--------12---|
G|--9----------9---------9----------9-----------9----------9---------|
D|-------12---------12--------12----------12----------12--------12---|
A|--9----------9---------9----------9-----------9----------9---------|
E|-------------------------------------------------------------------|
   
e|-------------------------------------------------------------------|
B|-------12---------12--------12----------12----------12--------12---|
G|--9----------9---------9----------9-----------9----------9---------|
D|-------12---------12--------12----------12----------12--------12---|
A|--9----------9---------9----------9-----------9----------9---------|
E|-------------------------------------------------------------------|

e|--------------------------------------------------------------|
B|-------11--------11--------11--------11--------11--------11---|
G|--9----------9--------9----------9---------9---------9--------|
D|-------11--------11--------11--------11--------11--------11---|
A|--9----------9--------9----------9---------9---------9--------|
E|--------------------------------------------------------------|

 Slow This down              Tap R1 slide to 16 (just because)
e|-------------------------------------------------------|
B|-------11--------11--------11--------------------------|
G|--9----------9--------9--------------------------------|
D|-------11--------11--------11\16-----------------------|
A|--9----------9--------9--------------------------------|
E|-------------------------------------------------------|

Chord Tapping end
This part speeds up every time through
 L1 L3 R2 R1    L1 L2  R1   R2  L1  L3 R2 R1   L1 L2   R2  R1
e|-------------------------------------12----------------------|
B|-----12--------------14------------------------------11------|
G|----------------------------------------12-------9-----------|
D|--------12-------11-------14-------9---------------------11--|
A|---9-----------10---------------7--------------9-------------|
E|-7-----------------------------------------------------------|

 L1 L2  R2 R1   L1 L2 R2 R1   L1 L2  R2 R1  L1 L3  R2  R1
e|------------------------------------------------------------|
B|------11------------12-------------14------------12---------|
G|---9--------------------------------------------------------|
D|---------11-----9------12------11-----14-------------12-----|
A|-9-------------7-------------10----------------9------------|
E|-------------------------------------------7----------------|

L1 L3 R2 R1    L1 L2  R1   R2  L1  L3 R2 R1   L1 L2   R2  R1
e|-------------------------------------12----------------------|
B|-----12--------------14------------------------------11------|
G|----------------------------------------12-------9-----------|
D|--------12-------11-------14-------9---------------------11--|
A|---9-----------10---------------7--------------9-------------|
E|-7-----------------------------------------------------------|

 L1 L2  R2 R1   L1 L2 R2 R1   L1 L2  R2 R1  L1 L3  R2  R1
e|------------------------------------------------------------|
B|------11------------12-------------14------------12---------|
G|---9--------------------------------------------------------|
D|---------11-----9------12------11-----14-------------12-----|
A|-9-------------7-------------10----------------9------------|
E|-------------------------------------------7----------------|

Faster
L1 L3 R2 R1    L1 L2  R1   R2  L1  L3 R2 R1   L1 L2   R2  R1
e|-------------------------------------12----------------------|
B|-----12--------------14------------------------------11------|
G|----------------------------------------12-------9-----------|
D|--------12-------11-------14-------9---------------------11--|
A|---9-----------10---------------7--------------9-------------|
E|-7-----------------------------------------------------------|

 L1 L2  R2 R1   L1 L2 R2 R1   L1 L2  R2 R1  L1 L3  R2  R1
e|------------------------------------------------------------|
B|------11------------12-------------14------------12---------|
G|---9--------------------------------------------------------|
D|---------11-----9------12------11-----14-------------12-----|
A|-9-------------7-------------10----------------9------------|
E|-------------------------------------------7----------------|

Fastest….
L1 L3 R2 R1    L1 L2  R1   R2  L1  L3 R2 R1   L1 L2   R2  R1
e|-------------------------------------12----------------------|
B|-----12--------------14------------------------------11------|
G|----------------------------------------12-------9-----------|
D|--------12-------11-------14-------9---------------------11--|
A|---9-----------10---------------7--------------9-------------|
E|-7-----------------------------------------------------------|

 L1 L2  R2 R1   L1 L2 R2 R1   L1 L2  R2 R1  L1 L3  R2  R1
e|------------------------------------------------------------|
B|------11------------12-------------14------------12---------|
G|---9--------------------------------------------------------|
D|---------11-----9------12------11-----14-------------12-----|
A|-9-------------7-------------10----------------9------------|
E|-------------------------------------------7----------------|

 L1 L2 R2 R1 (simile)
e|-----12----------12----------12----------12-------|
B|--------------------------------------------------|
G|--------12----------12----------12----------12----|
D|---8----------8-----------8------------8----------|
A|--------------------------------------------------|
E|-7----------7-----------7------------7------------|

e|-----12----------12----------12----------12-------|
B|--------------------------------------------------|
G|--------12----------12----------12----------12----|
D|---8----------8-----------8------------8----------|
A|--------------------------------------------------|
E|-7----------7-----------7------------7------------|

 L1 L3 R2 R1 (simile)
e|-----11----------11----------11----------11------|
B|-------------------------------------------------|
G|--------11----------11----------11----------11---|
D|---9---------9-----------9------------9----------|
A|-------------------------------------------------|
E|-7----------7-----------7------------7-----------|

e|-----11----------11----------11----------11------|
B|-------------------------------------------------|
G|--------11----------11----------11----------11---|
D|---9---------9-----------9------------9----------|
A|-------------------------------------------------|
E|-7----------7-----------7------------7-----------|

Finale
 L1 L2 R2 R1 (simile)
e|-----12----------12----------12----------12-------|
B|--------------------------------------------------|
G|--------12----------12----------12----------12----|
D|---8----------8-----------8------------8----------|
A|--------------------------------------------------|
E|-7----------7-----------7------------7------------|


e|-----15----------15----------12----------12-------|
B|--------------------------------------------------|
G|--------15----------15----------12----------12----|
D|---8----------8-----------8------------8----------|
A|--------------------------------------------------|
E|-7----------7-----------7------------7------------|

 L1 L3 R2 R1 (simile)
e|-----11----------11----------11----------11------|
B|-------------------------------------------------|
G|--------11----------11----------11----------11---|
D|---9---------9-----------9------------9----------|
A|-------------------------------------------------|
E|-7----------7-----------7------------7-----------|

e|-----11----------11-----||
B|------------------------||
G|--------11----------11--||
D|---9---------9----------||
A|------------------------||
E|-7----------7-----------||
note that the final section finshes with only 6 repeats not 8!

END

            
            
Suggest correction
Creating personal tab
Creating personal tab
You can edit any tab online and save it as your Personal.

You can edit, replace or remove any tab part or add personal notes – all changes will be seen only by you.

Personal tabs can be accessed anytime from any device, even offline.
Learn more »
Give kudos to tab author, rate the tab!
1 2 3 4 5
comments
print report bad tab
guest
Wanna post a correction for this tab? Suggest correction