Oops, an error
Loading. Please wait.

New Day Tab

version 1
version 1

Whole song

Interactive

754 views 1 this week
no commentswrite comment
1 2 3 4 5
please rate
add to favorites
launch autoscroll
font size
0
reset
how to read this tab
guitar tuner
Autoscroll
slow
fast
+/-
esc
set tempo
stop
Help us to improve Ultimate-Guitar.com Take our survey!
×
Author
                        New Day by Joe Satriani

Tuning: Standard

Tabbed by marcus101

e-------7-6-4-2----------7-6-11-2---------10--9-7-5-----------14-12-11h12p11-|
B-----7-7-7-5-0------7-7-7-7--9-0------10-10-10-8-3--------14-12-10-10-------|
G---4-4------------4-4-4-------------7--7---------------11-11----------------|
D-4-2------------4-2---------------7-5---------------11--9-------------------|
A-2--------------2-----------------5------------------9----------------------|
E----------------------------------------------------------------------------|


-9-7----------7-6-4-2----------7-6-11-2---------10--9-7-5-----------14-12-16-|
-7-5--------7-7-7-5-0------7-7-7-7--9-0------10-10-10-8-3--------14-12-10-14-|
----------4-4------------4-4-4-------------7--7---------------11-11----------|
--------4-2------------4-2---------------7-5---------------11--9-------------|
--------2--------------2-----------------5------------------9----------------|
-----------------------------------------------------------------------------|


-19-|
-17-|
----|
----|
----|
----|


e------------------------8--7-----------------------------------------------|
B----8-12-10-8--------8-10-10---------------------13-15-20-17-15------------|
G--9-9-12-11-9------9-9----------7--9-14-14-12-14-14-16-17-16-14------------|
D-10------------10-10----------7-9-12-15-15-14-15-------------------------9-|
A---------------12-------------8------------------------------------7-9/10--|
E-------------------------------------------------------------------8-------|


--------------7--8--------3-3-5-10-10-14-12-------------------------10-12-15-|
-----------8-10-10------5-3-3-5-----------------------6-5-3----8-10----------|
---------9-9----------4-7-------11-11-14-12------------------7-9-10-10-12-15-|
7-5--10-10----------5-5---------------------9-------7-7-5-3--8---------------|
9-7--12-------------7-------------------------7---5--------------------------|
-----------------------------------------------------------------------------|


-----------18-17-15-13-------------------------------------------------------|
--------18-16-16-13-11------------------------6--9--8------------------------|
-----15-15--------------------8-12-10--8----5-5-10-10------13-12-10-------15-|
--15-13-------------------10-10-13-12-10--6-6------------6-11--8--6-----8-13-|
--13----------------------11--------------8------------8-8----------10-10----|
-------------------------------------------------------9------------11-------|


----------------------------------------------------------------------------|
----------------------------------------------------------------------------|
-13-13-12-----13-12-10-------15-13-13-12-----13-12-10-------15-13-13-12-----|
-10-10--8---6-11--8--6-----8-13-10-10--8---6-11--8--6-----8-13-10-10--8---6-|
----------8-8----------10-10-------------8-8----------10-10-------------8-8-|
----------9------------11----------------9------------11----------------9---|


-----------|
-----------|
13-12-10-8-|     Let the chord at the end ring.
11--8--6-8-|
---------6-|
-----------|


The solo is played over these chords:

e---------|
B---0---0-|
G--1---3--|
D-2---4---|
A---------|
E---------|

Solo:

e---------------------------------------------------------------16--14-------|
B----------------------14-------------------------------------14--14---------|
G----13-13-15-15-16-16------13-13-15-15-------13-13-15-15-16--------------13-|
D-16----------------------16-----------16---16-------------------------16----|
A----------------------------------------------------------------------------|
E----------------------------------------------------------------------------|

---------------18----16---19b21---16-18-16--------------------------------|
------------------19------------------19-16-19----------------------------|
15-15----------------------------------------16-18-18/20------------------|
------16-----------------------------------------16----18\16----18--------|
-----------------------------------------------------------16-16-16\14----|
--------------------------------------------------------------------------|

-21b23--19-21-21b23-19-21b23-19-18------------16---|
------------------------------------19-16--19------|
---------------------------------------------------|
---------------------------------------------------|
---------------------------------------------------|
---------------------------------------------------|

The last solo part is played over the beginning part of the song, it shouldn't be too
hard for you to figure it out as the notes are not played very fast.
I know this probably isn't exactly how joe plays the song but i think it's pretty close.
Enjoy!
Suggest correction
Give kudos to tab author, rate the tab!
1 2 3 4 5
comments
print report bad tab
guest
You may want to rate the tab now too:
select rating
Please do not post tabs as comments. Select "correction" instead!