Oops, an error
Loading. Please wait.

Overdriver Tab

version 1
version 1

Intro

Whole song

Interactive

2,050 views 3 this week
4 commentsread comments
1 2 3 4 5
accurate
x 4
add to favorites
launch autoscroll
font size
0
reset
how to read this tab
guitar tuner
Autoscroll
slow
fast
+/-
esc
set tempo
stop
Help us to improve Ultimate-Guitar.com Take our survey!
×
Song: Overdriver - Joe Satriani

My first tab so i can't figure out the the other parts

Intro Bit

e|---------------------------|
B|---------------------------|
G|--2---2-----2---2----------|
D|---------------------------|
A|----0---0-0---0---/3-3-3-0-|
E|---------------------------|

tremolo bit

e|---------------------------|
B|---------------------------|
G|--2--0--2--5~--2--0--------|
D|---------------------------|
A|---------------------------|
E|---------------------------|

e|---------------------------|
B|---------------------------|
G|--0--2--6--2--0------------|
D|---------------------------|
A|---------------------------|
E|---------------------------|

e|---------------------------|
B|---------------------------|
G|--0--2--9--2--0------------|
D|---------------------------|
A|---------------------------|
E|---------------------------|

e|---------------------------|
B|---------------------------|
G|--0--2--11--2--0-----------|
D|---------------------------|
A|---------------------------|
E|---------------------------|
Suggest correction
comments
print report bad tab
4 comments total. Showing first comments.
+1 reply
Teh GIR 200 wrote on April 12 2008, 12:24 pm

The intro is wrong, its played on the E and D strings, i saw him play it at Guitar Center

e|---------------------------|
B|-----------------------------|
G|-----------------------------|
D|---7---7-------7---7---------|
A|-----------------------------|
E|-----5---5---5---5---/8-8-8--|

+1 reply
EpiTelePhone 21 wrote on April 25 2008, 01:36 pm

Its the same Notes Wherther its Played On the E and D strings soooo (shrug)

+1 reply
EpiTelePhone 21 wrote on April 25 2008, 01:37 pm

soo I am Right And You Are Right Seeee

guest
You may want to rate the tab now too:
select rating
Wanna post a correction for this tab? Suggest correction