Oops, an error
Loading. Please wait.

Professor Satchafunkilus intro tab

version 2
version 2

Intro

Interactive

2,066 views 1 this week
2 commentsread comments
1 2 3 4 5
1 last vote to show rating
add to favorites
×
Save as Personal and add changes to this tab that will be seen only by you. Learn more ›
×
You can save this tab as Personal to edit and correct it or add notes. All changes will be seen only by you. Learn more »
launch autoscroll
font size
0
reset
how to read this tab
guitar tuner
edit
Autoscroll
slow
fast
+/-
esc
set tempo
stop
Author
Difficulty
Standard tuning EADGBE
My first tab.
Professor Satchafunkilus by Joe Satriani.
Just the chorus/solo/intro part of the song.

E----------------------------------------------|
B---14-14-14-14po12s10-12--10-7-10-10-12-10----|
G----------------------------------------------|
D----------------------------------------------|
A----------------------------------------------|
E----------------------------------------------|
(play this twice.)


E----------------------------------------------|
B------------8---------------10---6------------|
G-------7s9-----------7s9-7---------7----------|
D---5------------5-----------------------------|
A----------------------------------------------|
E----------------------------------------------|
(play this twice.)

That's all! If anyone has a complete tab for this song, please post it on.

            
            
Suggest correction
Creating personal tab
Creating personal tab
You can edit any tab online and save it as your Personal.

You can edit, replace or remove any tab part or add personal notes – all changes will be seen only by you.

Personal tabs can be accessed anytime from any device, even offline.
Learn more »
Give kudos to tab author, rate the tab!
1 2 3 4 5
comments
print report bad tab
2 comments total.
0 reply
Munky92 15 Jun 23, 2008 10:47 PM

can you please call it professor sathcafunkilus? i try and search for musterion and i get this. thanks bud.

0 reply
aural_fixation 10 May 06, 2009 10:38 AM

Try this instead.
E---------------------------------------------------------------|
B-------------8---------------------10b10.5----6b6.5------------|
G--------7-9---------------7--9--7----------------------7~~~~---|
D-5--7s9-----------5---7s9--------------------------------------|
A---------------------------------------------------------------|
E---------------------------------------------------------------|

guest
You may want to rate the tab now too:
select rating
Wanna post a correction for this tab? Suggest correction