Oops, an error
Loading. Please wait.

Satch Boogie Tab

version 1
version 1

Whole song

243,703 views 246 this week
37 commentsread comments
1 2 3 4 5
x 63
add to favorites
launch autoscroll
font size
0
reset
how to read this tab
guitar tuner
×
Best way to learn
"Satch Boogie"
Autoscroll
slow
fast
+/-
esc
set tempo
stop
e|------------|-----------------|--------------------|----------------------|
B|------------|.----------------|--------------------|----------------------|
G|------------|-----------------|--------2-2p0-------|----2--------0--------|
D|------------|.----------------|--------------------|----------4-----0-----|
A|--0-3p0-----|-5p0--------3h5--|-5~--0---------3p0--|-4-----5--------------|
E|------------|------3--5-------|--------------------|------------------2p0-|

e|----------------|----------------|-------------------|-------------------|
B|---------------.|----------------|-------------------|-------------------|
G|----------------|----------------|------5p4----------|-------------------|
D|---------------.|----------------|------4----4p0-----|-------------------|
A|-3p0-----0-3p0--|--5p0--------3--|-5p0-----------5p0-|-7p0------5p0------|
E|-----3-5--------|-------3-2~-----|-------------------|-----5-4-----------|

e|----------------|-------------------------|------------|-------------------|
B|----------------|-------------------------|------------|-------------------|
G|-------------x--|--13--12--11--10--9---8--|-7----------|-------------------|
D|----------2--x--|--12--11--10---9--8---7--|-6----------|-------------------|
A|-7p0---------x--|--14--13--12--11--10--9--|-8---0-3p0--|-5p0--------3h5----|
E|------3p0-------|-------------------------|------------|------3-5~---------|

e|--------------------|----------------|-------------------|-9\8--7----------|
B|--------------------|----------------|-------------------|-9\8--7----------|
G|---------2-2p0------|---2p0-----5p0--|--------8--7~------|-----------------|
D|--------------------|----------------|---7h10------------|-----------------|
A|--5~--0--------3p0--|-4------5-------|-9-----------------|-----------------|
E|--------------------|----------------|----------------0--|------------0----|

e|-9--8\7-----------|------------------|--------------------|----------------|
B|-9--8\7-----------|------------------|--------------------|----------------|
G|-9--8\7-----------|------------------|-------2-2p0--------|----2-----0-----|
D|------------------|------------------|--------------------|--------4---0---|
A|----------0--3p0--|-5p0---------3p0--|-5~p0----------3p0--|-4----5---------|
E|------------------|------3-5~--------|--------------------|----------------|

                                  (harm dive w/bar)
e|------|-------------|----------|--------------|----------------------------|
B|------|-------------|----------|--------------|---------------------5------|
G|------|-------------|----------|--------------|---------------------5------|
D|------|-------------|----------|--------14*---|----------------------------|
A|------|-3p0---------|----------|--------------|----------------------------|
E|-2p0--|------3--5~--|-----~----|---~----------|----------------------------|

                                                             (1/2)
e|----------------------|---------------------|-----------------------------|
B|--5--5----------------|---------------------|---------------8b------------|
G|--5--5----------------|-5a.h.---------------|----x\-----------------------|
D|--------7p5--5--x--7--|-------5-7-7~--5--7~-|----x\-----5-----------------|
A|----------------------|---------------------|----x\-----------------------|
E|----------------------|---------------------|-----------------------------|

e|-5---8---5-7p|5---5----------5--|--------------------------|---------------|
B|---7---7-----|--8-----8---------|-8p5-----5-------------5--|---------------|
G|-------------|------5----8p7----|-----7bf---7p5---------5--|-p0--5~--------|
D|-------------|------------------|---------------7-5--0-----|---------7-----|
A|-------------|------------------|--------------------------|-----------3p0-|
E|-------------|------------------|--------------------------|---------------|

e|---------------------|---------------------|--------------|----------------|
B|---------------------|---------------------|--------------|----------------|
G|---------------------|-----------------5~--|--------------|-5---5----------|
D|---------------------|---------------------|--7-5-7-5-7~--|-5-0-5--7~------|
A|-3b---5b--3b---5bp0--|-3b---5p0-3p0-3------|--------------|----------------|
E|---------------------|---------------------|--------------|----------------|
  (1/2)

                                    (1/2)
e|--------5-------5-------|-5-8bf----8b---|--5h8-5--------------------------|
B|------5-------5-------5-|---8bf---------|--------8~-----------------------|
G|-7bf------7bf-----7bf---|---------------|------------5p0------------------|
D|------------------------|---------------|---------------------------------|
A|------------------------|---------------|---------------------------------|
E|------------------------|---------------|---------------------------------|

               (1/2)
e|-------------14b-----|-rb14--b14----b14--|-p12----------------------------|
B|---------------------|-------------------|-----13-------------------------|
G|---------------------|-------------------|--------14-12\11----------------|
D|--5p0----------------|-------------------|-----------------12-------------|
A|------3--------------|-------------------|--------------------------------|
E|--------5~-----------|-------------------|--------------------------------|
                                                                                                    
e|---------------------|-------------------|--------------------------------|
B|---------------------|-------------------|--------------------------------|
G|---------------------|--5-5-----5-2------|--5--5--2--5--2----7------------|
D|--2--2------------0--|-------0---------0-|-----------------0--------------|
A|--0--0--2p0-3p0-4----|---------------3---|--------------------------------|
E|---------------------|-------------------|--------------------------------|

e|-------------------------|-------------------------|
B|-------------------------|-------------------------|
G|-12----------------------|----------------9bf ah---|
D|----12\10----12p9--9p0---|-7p0--4p0h4p0------------|
A|----------12-------------|-------------------------|
E|-------------------------|-------------------------|
                                                                                                
e|-------------------------|-------------------------|
B|-------------------------|-------------------------|
G|-5-5-----5-4-------------|-5---4---2---4-----------|
D|------0-------0-0--------|---0---0---0---0---------|
A|-------------------------|-------------------------|
E|-------------------------|-------------------------|

e|-----------------|-----------------------|--------------------------------|
B|-----------------|---------------/15p0---|--------------------------------|
G|-rb9~------------|--9bf---rb9~-----------|--------------------------------|
D|-----------------|-----------------------|--5p0--4p0----------------------|
A|-----------------|-----------------------|------------5p0--3p0------------|
E|-----------------|-----------------------|--------------------------------|
 
 
e|-----------------|-----------------------|--------------------------------|
B|-----------------|-----------------------|--------------------------------|
G|--5-----5--2-----|-5-------5-----2-------|-------5--2--5--2---------------|
D|-----0--------0--|----0-0----------0-0---|-0--0---------------------------|
A|-----------------|-----------------------|-------------------5--4---------|
E|-----------------|-----------------------|--------------------------------|

                                                                     (1/2)
e|------------------------|----------------------------|---------------------|
B|------------------------|----------------------------|---------------------|
G|------------------------|----------------------------|-------------/6b-rb6-|
D|------------------------|----------------------------|---4-6-7-x-6---------|
A|-3p0--3--5~--/15--------|---------------4h5h6p5--5h6h|7--------------------|
E|------------------17\---|-/8--\2--4h5h7--------------|---------------------|
                                                                                                   
e|------------------------|----------------------------|---------------------|
B|------------------------|----------------------------|---------------------|
G|------------------------|----------------------------|--------------2--4---|
D|---------------x\-------|----4--4--------4--4--------|-4--4------4--2--4---|
A|-3--0--3--0----x\-------|----4--4--------4--4--------|-4--4------4--0--2---|
E|---------------x\--2----|-2---------2----------2---2-|--------2----------2-|

e|-------------------------|---------------------------|--------------2------|
B|-------------------------|--------x------------------|------5--5p2-----2---|
G|---5-a.h.-w/bar-up-------|--~-----x------------------|---------------------|
D|-------------------------|--------x-----7\4----------|--4------------------|
A|-------------------------|---------------------------|---------------------|
E|-------------------------|--------------5\2----------|--2------------------|
                                                                        
e|-------------------------|---------------------------|---------------------|
B|-------------------------|---------------------------|---------------------|
G|-------------------------|----------------2----4-----|---------------------|
D|----4-------4------------|--4------4--4---2----4-----|---4--------4--------|
A|----4-------4------------|--4------4--4---0----2-----|---4--------4--------|
E|-2-------2-------2--2----|------2-----------------2--|------2--2-----2-2-2-|

                                                   (1/2)
e|-5----2--5p2-------------|---------------------------|------9\-------------|
B|----5---------2--5-------|---------------------------|---------------------|
G|--------------------4bf--|-rb4p2-----2--2p0--4ah--4b-|-rb4~------x-x-x-----|
D|-------------------------|--------4------------------|-----------x-x-x-----|
A|-------------------------|---------------------------|-----------x-x-x-----|
E|-------------------------|---------------------------|-----------------15\-|
                                                                                                             
e|-------------------------|---------------------------|---------------------|
B|-------------------------|---------------------------|---------------------|
G|--------------2--2--4----|---------------------------|---------------------|
D|--4-----4--4--2--2--4----|--4--------4---------------|------4----------2---|
A|--4-----4--4--0--0--2----|--4--------4---------------|------4----------0---|
E|-----2-----------------2-|-----2--2-----2--2--2------|--2------2-2-3-4-----|

                                                      (1/2)
e|-5-----5-----5-----5--|----5----------5--------|-5---------5--------------|
B|----8-----8-----8-----|-8-----8p7--7-----7--7--|-5--7b-rb--5--7b-rb-------|
G|----------------------|------------------------|----7b-rb-----7b-rb-------|
D|----------------------|------------------------|--------------------------|
A|----------------------|------------------------|--------------------------|
E|----------------------|------------------------|--------------------------|

                                                                  (1/4)
e|-5-----------5-----------|-5-------5----------5-----|----------------------|
B|-5---7b--rb-----7-----5--|-------5---------5--------|----------------------|
G|-----7b--rb--------7-----|---7bf------7bf--------7bf|-rb7--5-7p0-5b--------|
D|-------------------------|--------------------------|---------------7-5----|
A|-------------------------|--------------------------|-------------------4--|
E|-------------------------|--------------------------|----------------------|

                                        (p.s)
e|---------------------|------------------------------------|----------------|
B|---------------------|------------------x\----------------|----------------|
G|---------------------|------------------x\--------t14-----|--12tr14~-------|
D|---------------------|--5bf-rb5--5bf~---x\----------------|----------------|
A|-5p0--7p0--5p0--3p0--|------------------------------------|----------------|
E|---------------------|-----------------------/10----------|----------------|

e|------------------------------------|---------------------------------------|
B|------------------------------------|---------------------------------------|
G|t14p11-t14p11--t14p11-t14p11-t14p11\|9-t14p9-t14p9-t14p11-t14p11-t14p11-----|
D|------------------------------------|---------------------------------------|
A|------------------------------------|---------------------------------------|
E|------------------------------------|---------------------------------------|

e|------------------------------------|---------------------------------------|
B|------------------------------------|---------------------------------------|
G|-t14p12-t14p12-t14p12-t14p11-t14p11-|-t14p9-t14p9-t14p7-t14p7-t14p7-t14p9---|
D|------------------------------------|---------------------------------------|
A|------------------------------------|---------------------------------------|
E|------------------------------------|---------------------------------------|

                      (p.s)
e|--------------|---------------|---------------|-----------------------------|
B|--------------|---------------|---------------|-----------------------------|
G|-t14p9--7-5~--|--~--x/--------|--5harm-w/bar--|----0----x----5harm---x-x----|
D|--------------|-----x/--------|---------------|---------x-----w/bar--x-x----|
A|--------------|---------------|---------------|---------x------------x-x----|
E|--------------|----------12\--|---------------|-----------------------------|

e|-----------|-------------|----------12--8--8--|--10--10---------12--12-----|
B|-----w/bar-|--5----8--8--|--10-10---12--------|----------------------------|
G|-----------|--5----7--7--|---9--9----9--9--9--|--11--11---------12--12-----|
D|------0----|----------0--|--------------------|----------------------------|
A|--0---0----|-------------|--------------------|----------------------------|
E|--0--------|-------------|--------------------|----------------------------|

e|-----14--14\---------14--|-14--14--14--14-------15--15--15--15------------|
B|--------------x--x/------|------------------------------------------------|
G|-14-----------x--x/--14--|-14--14--14--14--/16--16--16--16--16--12/17-----|
D|--------------x----------|------------------------------------------------|
A|-------------------------|------------------------------------------------|
E|-------------------------|------------------------------------------------|

e|--17--17--17--17--20--19--19--19----------|----------20----20~------------|
B|----------------------------------19------|-19h20~---20----20~------------|
G|--17--17--17--17------19--19--19------19--|-------------------------------|
D|------------------------------------------|-------------------------------|
A|------------------------------------------|-------------------------------|
E|------------------------------------------|-------------------------------|

                                       (1) (1/2)      (1/2)    (1) (1/2)
e|---x\----------19bf-|-rb19---19bf~----21b---|-rb21-----b21----------------|
B|---x\----x\---------|-----------------------|-----------------x\--17------|
G|---x\----x\---------|-----------------------|-----------------x\----------|
D|---------x\---------|-----------------------|-----------------x\----------|
A|--------------------|-----------------------|-----------------------------|
E|--------------------|-----------------------|-----------------------------|

   (1/2)
e|-------14------17--------|---------------------------|---------2----------|
B|-17b-------14------------|---------------------------|------------2-------|
G|------------------14~----|---------------------x-----|--4bf~--------------|
D|-------------------------|-14p12---------------x--x--|--------------------|
A|-------------------------|--------14--12~--\---x--x--|--------------------|
E|-------------------------|------------------------x--|--------------------|

                    (1/2)
e|----------2---------------|------------------------|----------------------|
B|-5-----------5p2-----2-2--|------------------------|----------------------|
G|----4bf~----------4b------|-4p2--------------------|------------5---------|
D|--------------------------|------4--2--------------|---------------7~-----|
A|--------------------------|------------4p2p0-0-----|----------------------|
E|--------------------------|---------------------2--|-/17--17\0------------|

e|--------------------------------------|-----------------------------------|
B|--------------------------------------|-----------------------------------|
G|--------------------------------------|-----------------------------------|
D|-12-7-6-0-6-7-12-7-6-0-6-7-12-7-6-0-6-|-7-6-7-6-7-12-7-6-0-6-7-12-6-0-----|
A|--------------------------------------|-----------------------------------|
E|--------------------------------------|-----------------------------------|
  t  p p p h h  t p p p h h  t p p h h   h p h p h t  p p p h h  t p p

e|------------------------------------------|--------------------------------|
B|------------------------------------------|--------------------------------|
G|------------------------------------------|--------------------------------|
D|------------------------------------------|--------------------------------|
A|-15-12-9-0-9-12-15-12-9-0-9-12-15-9-0-12-9|15-12-9-12-9-12-15-12-9-0-9-12--|
E|------------------------------------------|--------------------------------|
  t   p p p h  h  t  p p p h  h  t p p  h p  t  p p  h p  h  t  p p p  h  h

e|--------|----------------------------------------|-------------------------|
B|--------|----------------------------------------|-------------------------|
G|--------|----------------------------------------|-------------------------|
D|--------|----------------------------------------|-------------------------|
A|-15-9-0-|-17-10-8-0-8-10-17-8-0-8-10-17-8-0-8-10-|-17-10-15-10-0-8-10-17-8-|
E|--------|----------------------------------------|-------------------------|
  t  p p    t  p p p h  h  t p p h  h  t p p h  h    t  p  h  p p h  h  t p

e|---------------|------------------------------------|----------------------|
B|---------------|------------------------------------|----------------------|
G|---------------|------------------------------------|----------------------|
D|---------------|------------------------------------|----------------------|
A|-0-8-10-17-8-0-|-12-7-5-0-6-8-13-8-6-0-7-9-14-7-0-7-|-15-10-8-0-8-10-14-7--|
E|---------------|------------------------------------|----------------------|
  p h  h  t p p   t  p p p h h  t p p p h h  t p p p    t  p p p h  h  t p

e|------------------|----------------------------------------|
B|------------------|----------------------------------------|
G|------------------|----------------------------------------|
D|------------------|----------------------------------------|
A|-0-6-8-13-8-7-0-6-|-12-7-6-0-6-7-12-7-6-0-6-7-12-7-6-0-6-7-|
E|------------------|----------------------------------------|
  p h h  t p p p h    t p p p h h  t p p p h h  t p p p h h

(the rest of the tapping hammer-ons and pull-offs are in the same
format.)
e|------------------------------------|--------------------------------------|
B|------------------------------------|--------------------------------------|
G|------------------------------------|--------------------------------------|
D|------------------------------------|--------------------------------------|
A|-12-7-6-0-6-7-12-7-6-0-6-7-12-6-0-9-|-15-12-9-0-9-12-15-12-9-0-9-12-15-12--|
E|------------------------------------|--------------------------------------|

e|-------|-------------------------------------------|------------------------|
B|-------|-------------------------------------------|------------------------|
G|-------|-------------------------------------------|------------------------|
D|-------|-------------------------------------------|------------------------|
A|-9-0-9-|-15-12-9-0-9-12-15-12-9-0-9-12-15-12-9-0-8-|-17-10-8-0-8-10-17-10-8-|
E|-------|-------------------------------------------|------------------------|

e|--------------------|--------------------------------------|
B|--------------------|--------------------------------------|
G|--------------------|--------------------------------------|
D|--------------------|--------------------------------------|
A|-0-8-10-17-10-8-0-8-|-17-10-8-0-8-10-17-10-8-0-8-10-17-8-0-|
E|--------------------|--------------------------------------|

e|----------------------------------------------|----------------------------|
B|----------------------------------------------|----------------------------|
G|----------------------------------------------|----------------------------|
D|----------------------------------------------|----------------------------|
A|-16-11-9-0-9-11-16-11-9-0-9-11-16-11-9-0-9-11-|-16-11-9-0-9-11-16-11-9-0-9-|
E|----------------------------------------------|----------------------------|

e|-------------|--------------------------------------------|-----------------|
B|-------------|--------------------------------------------|-----------------|
G|-------------|--------------------------------------------|-----------------|
D|-------------|--------------------------------------------|-----------------|
A|-11-16-9-0-8-|-15-10-15-0-8-10-15-10-8-0-8-10-15-10-8-0-8-|-15-10-8-0-8-10--|
E|-------------|--------------------------------------------|-----------------|

e|-------------------------|--------------------------------------|
B|-------------------------|--------------------------------------|
G|-------------------------|--------------------------------------|
D|-------------------------|--------------------------------------|
A|-15-10-8-0-8-10-15-8-0-5-|-14-8-5-0-5-8-14-8-5-0-5-8-14-8-5-0-5-|
E|-------------------------|--------------------------------------|

e|----------------------------------|---------------------------------------|
B|----------------------------------|---------------------------------------|
G|----------------------------------|---------------------------------------|
D|----------------------------------|---------------------------------------|
A|-14-8-5-0-5-8-14-5-0-5-8-14-5-0-7-|-11-8-7-0-7-8-11-8-7-0-7-8-11-8-7-0-7--|
E|----------------------------------|---------------------------------------|

e|-----------------------------------|---------------------------------------|
B|-----------------------------------|---------------------------------------|
G|-----------------------------------|---------------------------------------|
D|-----------------------------------|---------------------------------------|
A|-11-8-7-0-7-8-11-7-0-7-8-11-7-0-10-|-17-12-10-0-10-12-17-12-10-0-10-12-17--|
E|-----------------------------------|---------------------------------------|

e|------------|-------------------------------------------|-------------------|
B|------------|-------------------------------------------|-------------------|
G|------------|-------------------------------------------|-------------------|
D|------------|-------------------------------------------|-------------------|
A|-12-10-0-10-|-17-12-10-0-10-12-17-12-10-0-10-12-17-10-0-|-16-12-11-0-11-12--|
E|------------|-------------------------------------------|-------------------|

e|--------------------------------|--------------------------------------------|
B|--------------------------------|--------------------------------------------|
G|--------------------------------|--------------------------------------------|
D|--------------------------------|--------------------------------------------|
A|-16-12-11-0-11-12-16-12-11-0-11-|-16-12-11-0-11-12-16-12-11-0-11-12-16-12-11-|
E|--------------------------------|--------------------------------------------|

e|------|-------------------------------------------------|-------------------|
B|------|-------------------------------------------------|-------------------|
G|------|-------------------------------------------------|-------------------|
D|------|-------------------------------------------------|-------------------|
A|-0-10-|-17-12-10-0-10-12-17-12-10-0-10-12-17-12-10-0-10-|-17-12-10-0-10-12--|
E|------|-------------------------------------------------|-------------------|

e|-----------------------------|----------------------------------------------|
B|-----------------------------|----------------------------------------------|
G|-----------------------------|----------------------------------------------|
D|-----------------------------|----------------------------------------------|
A|-17-12-10-0-10-12-17-10-0-12-|-16-12-11-0-11-12-16-12-11-0-11-12-16-12-11-0-|
E|-----------------------------|----------------------------------------------|

e|----|----------------------------------------------|------------------------|
B|----|----------------------------------------------|------------------------|
G|----|----------------------------------------------|------------------------|
D|----|----------------------------------------------|------------------------|
A|-11-|-16-12-11-0-11-12-16-12-11-0-11-12-16-11-0-10-|-17-12-10-0-10-12-17-12-|
E|----|----------------------------------------------|------------------------|

e|--------------------------|------------------------------------------------|
B|--------------------------|------------------------------------------------|
G|--------------------------|------------------------------------------------|
D|--------------------------|------------------------------------------------|
A|-10-0-10-12-17-12-10-0-10-|-19-12-10-0-10-12-17-12-10-0-10-12-17-10-0-12---|
E|--------------------------|------------------------------------------------|

e|----------------------------------------------|-----------------------------|
B|----------------------------------------------|-----------------------------|
G|----------------------------------------------|-----------------------------|
D|----------------------------------------------|-----------------------------|
A|-16-12-11-0-11-12-16-12-11-0-12-16-12-11-0-11-|-18-12-11-0-11-12-16-11-0-11-|
E|----------------------------------------------|-----------------------------|

e|---------------|----------------------------------------------|
B|---------------|----------------------------------------------|
G|---------------|----------------------------------------------|
D|---------------|----------------------------------------------|
A|-12-16-11-0-10-|-17-12-10-0-10-12-17-10-0-10-12-17-12-10-0-10-|
E|---------------|----------------------------------------------|

e|-------------------------------------------------|-------------------------|
B|-------------------------------------------------|-------------------------|
G|-------------------------------------------------|-------------------------|
D|-------------------------------------------------|-------------------------|
A|-17-12-10-0-10-12-17-10-0-10-12-17-12-10-0-10-12-|-16-12-10-0-10-12-16-12--|
E|-------------------------------------------------|-------------------------|

e|-----------------------|--------|----------------|-------------------------|
B|-----------------------|--------|----------------|-------------------------|
G|-----------------------|--------|----------------|-------------------------|
D|-----------------------|--------|----------------|--x----------------------|
A|-10-0-10-12-16-12-10-0-|-16p12--|-~-w/bar--------|--x-------0-3p0----------|
E|-----------------------|--------|-------------0--|--x----------------------|


************************************

| p   Pull-off
| h   Hammer-on
| ~   Vibrato
| x   Dead note
| \   Slide down
| *   Natural harmonic
| b   Bend
| /   Slide up
| t   Tapping
| tr  Trill

************************************
Suggest correction
comments
print report bad tab
37 comments total. Showing first comments.
+1 reply
whatson 10 Jan 19, 2002 07:00 PM

Dead On!

0 reply
aussie_satriani 10 Jun 24, 2002 08:00 PM

it took me 3 months of on and off to learn but it is spot on......well done!!!!

+2 reply
afifury69 40 Apr 21, 2004 08:00 PM

idont know should i learn it it intimidates me im scared what happens if i fail?

guest
You may want to rate the tab now too:
select rating
Wanna post a correction for this tab? Suggest correction