Oops, an error
Loading. Please wait.

Summer Song Tab

version 3
version 3

Whole song

Interactive

2,777 views 3 this week
no commentswrite comment
1 2 3 4 5
please rate
add to favorites
launch autoscroll
font size
0
reset
how to read this tab
guitar tuner
Autoscroll
slow
fast
+/-
esc
set tempo
stop
Help us to improve Ultimate-Guitar.com Take our survey!
×
Author
Difficulty
intermediate
----------------------------------------------------------------------------
                         Summer Song - Joe Satriani
----------------------------------------------------------------------------
Tabbed by: Zach Pepsin
Email:  EaglesDudeNFL@aol.com

Tuning: Standard (EADGBe)

THIS IS A TAB FOR THE RYTHM GUITAR ONLY!!!

Intro Riff (repeats)

e|---------------------------------------------------------------------|
B|-------------------5-5------5----------------------------------------|
G|--7-7------7-------5-5------5------7-7------7------7-7------7--------|
D|--5-5------5-------5-5------5------5-5------5------5-5------5--------|
A|--0-0--0-0-0--0-0-------0-0---0-0--0-0--0-0-0--0-0-0-0--0-0-0--0-0---|
E|---------------------------------------------------------------------|
  P.M.   . .    . .       . .   . .       . .    . .      . .    . .

Sometimes this is played in between repeats of the riff

e|------------------------------------------------------------------------|
B|------------------------------------------------------------------------|
G|------------------------------------------------------------------------|
D|--4-4-------4-------------------------7-7------7------7-7------7--------|
A|--2-2--2-2--2--2-2--5-5-------5-------5-5------5------5-5------5--------|
E|--------------------3-3--3-3--3--3-3--0-0--0-0-0--0-0-0-0--0-0-0--0-0---|
  P.M.   . .     . .       . .     . .       . .    . .      . .    . .

About 1:10 in this is played for the first time

It's repeated four times, but on the 3rd time, play it a full step (2 frets) lower.  (it 
start on the 1st fret).

e|--------------------------------|
B|--------------------------------|
G|--------------------------------|
D|--5-------4-----7---------------|
A|--5-----5---5s7----7-7-7-7-7-7--|
E|--3-5s6------------5-5-5-5-5-5--|
  P.M.               . . . . . .


Bridge - 1:37

e|-------------------------------------|
B|-------------------------------------|
G|-------------------------------2-----|
D|------2--------5---------------2-----|
A|------2--------5------0-3-0----0-----|
E|--3-2-0----0-2-3----3-------3--------|

Riff 2 (x4)

e|-------------------------------------|
B|-------------------------------------|
G|----------------------5-5------------|
D|--5-5-----------------5-5------------|
A|--5-5-------------3---3-3--3-(x10)---|
E|--3-3--3-(x10)--6---6----------------|
  P.M.   .                   .

Riff 3

e|--------------------------------------------|
B|--------------------------------------------|
G|--------------------------------------------|
D|--4-4------------------7-7------------------|
A|--4-4------------------7-7------------------|
E|--2-2--2-(x11)---3--4--5-5--5-(x11)--4--3---|
  P.M.   .                    .

The notes played in between Riffs 3 and 4

D|----------------|
A|--------------4-|
E|--5-5-7-7-8-8---|

Riff 4

e|--------------------------------------------------|
B|--------------------------------------------------|
G|----7-7----7----------9-9----9--------------------|
D|----7-7----7----------9-9----9-(x12)----9---------|
A|----5-5----5-(x30)----7-7----7----------7--(x18)--|
E|----------------------------------------0---------|
  P.M.       .                 .          .


Then it goes back to the riffs in the beginning
good luck!
Suggest correction
Give kudos to tab author, rate the tab!
1 2 3 4 5
comments
print report bad tab
guest
You may want to rate the tab now too:
select rating
Please do not post tabs as comments. Select "correction" instead!