Oops, an error
Loading. Please wait.

Surfing With The Alien Bass Tab

version 2
version 2
1,215 views 1 this week
no commentswrite comment
1 2 3 4 5
please rate
add to favorites
launch autoscroll
font size
0
reset
guitar tuner
Autoscroll
slow
fast
+/-
esc
set tempo
stop
Help us to improve Ultimate-Guitar.com Take our survey!
×
Author
Difficulty
intermediate
                            Surfing With The Alien                              
                                Joe Satriani

                                                                    
Disclaimer: This bass tab is far simpler than what Joe actually plays. It works well for me and is
            much simpler for my brain to wrap around that the other bass tab found at this site.


Main Riff (Repeats many times) (This would be the verse)

G|-----------------------------------------------------|
D|---------------------------------------------0-------|
A|------------------1-1-333--1-333--1-333--1-3--3-1----|
E|-1-333--1-333--1-3-3--------------------3--------333-|



Chorus Riff (These repeated notes aren't the actual count, just hang around while it feels good)
G|-----------------------------------------------------------------|
D|-----------------------------------------------------------------|
A|------7-7-7-7-7--5--3-3-3-3-3-3---------------3-4-5-5-5-5-5-5----|
E|-3-2-0--------------------------5-3-3-3-3-3-3--------------------|

G|-----------------------------------------------------------------|
D|-----------------------------------------------------------------|
A|-5-6--7-7-7-7-7--5--3-3-3-3-3-3---------------3-4-5-5-5-5-5-5--5-|
E|--------------------------------5-3-3-3-3-3-3--------------------|


Break Riff
G|----------------------------------------------------------------------------|
D|----------------------------------------------------------------------------|
A|-444444444444-2-54--444444444444-2-54--444444444444-2-54--444444444444--4-5-|
E|---------------4------------------4------------------4----------------------|

G|----------------------------------------------------------------------------|
D|----------------------------------------------------------------------------|
A|-666666666666-4-76--666666666666-4-76--666666666666-4-76--666666666666--6-7-|
E|---------------6------------------6------------------6----------------------|

G|----------------------------------------------------------------------------|
D|----------------------------------------------------------------------------|
A|-888888888888-6-98--888888888888-6-98--888888888888-6-98--888888888888--8-9-|
E|---------------8------------------8------------------8----------------------|

G|-----------------------|
D|-----------------------|
A|-10---8--7--5--3-------|  (this is the 10th fret, not 1 and 0)
E|-----------------------|

Suggest correction
Give kudos to tab author, rate the tab!
1 2 3 4 5
comments
print report bad tab
guest
You may want to rate the tab now too:
select rating
Please do not post tabs as comments. Select "correction" instead!