Oops, an error
Loading. Please wait.

Tears In The Rain Bass Tab

version 2
version 2
697 views 1 this week
no commentswrite comment
1 2 3 4 5
excellent!
x 1
add to favorites
launch autoscroll
font size
0
reset
guitar tuner
Tab Pro tools
  • play this tab
  • loop segment
  • change instrument
  • show fretboard
  • metronome
×
Best way to learn
"Tears In The Rain"
Autoscroll
slow
fast
+/-
esc
set tempo
stop
Contributor
                               Tears In the Rain                                 

this is 12 semi tones lower but sounds the same



Track 1
                                                                     
G||------5--7--9--7--5--|-----4--7--9--7-----|-----7--10--9--10--7--|
D||*--7-----------------|--3--------------9--|--6-------------------|
A||*--------------------|--------------------|----------------------|
E||---------------------|--------------------|----------------------|


                                                                          
-----5--7--9--7--5---||-----9--10--17----------|----------9--14----------|
--7-----------------*||--7-------------15--14--|------10---------14------|
--------------------*||------------------------|--12-----------------15--|
---------------------||------------------------|-------------------------|


                                                                              
--------------17----------|----------9--14----------|--------------9---------|
------14--15------15--14--|------10---------14------|----------10-----10--7--|
--12----------------------|--12-----------------15--|------12----------------|
--------------------------|-------------------------|--13--------------------|


                                                               
--------5--9--5-----|--------7--9--7-----|--------7--9--7-----|
-----7-----------7--|-----6-----------6--|-----6-----------6--|
--8-----------------|--8-----------------|--8-----------------|
--------------------|--------------------|--------------------|


                                                                               
--------5--9--5-----|--------7--9--7-----|--------------------|---------------|
-----7-----------7--|-----6-----------6--|--------------------|---------------|
--7-----------------|--7-----------------|-----------------2--|--0------------|
--------------------|--------------------|--5--7--8--0--4-----|---------------|


                                                                   
|------5--7--9--7--5--|-----4--7--9--7-----|-----7--10--9--10--7--|
|*--------------------|--3--------------9--|--6-------------------|
|*--0-----------------|--------------------|----------------------|
|---------------------|--------------------|----------------------|


                                                                          
-----5--7--9--7--5---||-----9--10--17----------|------9--10--17----------|
--7-----------------*||----------------15--14--|-----------------15--14--|
--------------------*||--5---------------------|-------------------------|
---------------------||------------------------|--10---------------------|


                                                                       
-----9--14--16--14------|-----9--14--16--14------|--------7--9--7-----|
--------------------14--|--------------------14--|-----7-----------7--|
------------------------|------------------------|--------------------|
--8---------------------|--8---------------------|--7-----------------|


                                                                
--------7--9--7-----|--------7--10--7-----|--------5--9--5-----|
-----6-----------6--|-----7------------7--|-----7-----------7--|
--------------------|---------------------|--------------------|
--0-----------------|--5------------------|--5-----------------|


                                                                            
-----9--10--17----------|------9--10--17----------|-----9--14--16--14------|
----------------15--14--|-----------------15--14--|--------------------14--|
--5---------------------|-------------------------|------------------------|
------------------------|--10---------------------|--8---------------------|


                                                                         
-----9--14--16--14------|------12--14----14----|--------------13--------|
--------------------14--|--11------------------|----------12------12----|
------------------------|----------------------|------14----------------|
--8---------------------|----------------------|--13--------------------|


                                                               
-------------10-------|-----------7-------|--------4--7--4----|
----------9------9----|--------6-----6----|-----3-------------|
------11--------------|-----8-------------|-------------------|
--10------------------|--7----------------|--4----------------|


                                                               
--------1--4--1-----|--------2--5--2-----|--------1--4--1-----|
-----0-----------0--|-----2-----------2--|-----2-----------2--|
--------------------|--------------------|--------------------|
--1-----------------|--0-----------------|--0-----------------|


                                                                                 
--------2--5--2-----|-----2--5--9--5-----|-----5--9--14---16---|--17------------|
-----2-----------2--|--2--------------7--|--7------------------|----------------|
--0-----------------|--------------------|----------------17---|--19------------|
--------------------|--------------------|---------------------|----------------|


                 
---------------||
---------------||
---------------||
--5------------||
comments
We did not receive enough feedback on this tab! Please rate:
print report bad tab
1 2 3 4 5
I want to post or [tab]
guest
You may want to rate the tab now too:
select rating
Please do not post tabs as comments. Select "correction" instead!