Oops, an error
Loading. Please wait.

Tears In The Rain Tab

version 3
version 3
12,527 views 18 this week
1 commentread comment
1 2 3 4 5
excellent!
x 8
add to favorites
launch autoscroll
font size
0
reset
how to read this tab
guitar tuner
Autoscroll
slow
fast
+/-
esc
set tempo
stop
Help us to improve Ultimate-Guitar.com Take our survey!
×
Contributor
jrayz13 161
Tears In The Rain - Joe Satriani

I found some mistakes in the other one and this is probably the correct one.

-------0-------------0-------------0-------------0----------|
-----3---3---------3---3---------6---6---------3---3--------|
---5-------5-----4-------4-----7-------7-----5-------5------| X2
-7-------------3-------------6-------------7----------------|
------------------------------------------------------------|
------------------------------------------------------------|


-------8-------------5-------------8-------------5----------|
-----6---6---------5---5---------6---6---------5---5--------|
---9-------9-----5-------5-----9-------9-----5-------5------|
-7-------------7-------------7-------------7----------------|
------------------------------------------------------------|
------------------------------------------------------------|

------------------------------------------------------------|
-------5------------5------------5------------5-------------|
-----5---5--------5---5--------7---7--------7---7-----------|
---7-------7----7-------7----6-------6----6-------6---------|
-8------------8------------8------------8-------------------|
------------------------------------------------------------|

------------------------------------------------------------|
-------5------------5---------------------------------------|
-----5---5--------7---7-------------------------------------|
---7-------7----6-------6-----------------------------------|
-7------------7--------------0-2-3-----2---0----------------|
-----------------------------------0-4----------------------|


-------0-------------0-------------0-------------0----------|
-----3---3---------3---3---------6---6---------3---3--------|
---5-------5-----4-------4-----7-------7-----5-------5------|
---------------3-------------6-------------7----------------| X2
-0----------------------------------------------------------|
------------------------------------------------------------|


-------8-------------8--------------8--------------8--------|
-----6---6---------6---6---------10---10--------10---10-----|
---9-------9-----9-------9-----9---------9----9---------9---|
------------------------------------------------------------|
-0-------------0--------------------------------------------|
-----------------------------8--------------8---------------|

------------------------------------------------------------|
-------5-------------5-------------6-------------5----------|
-----7---7---------7---7---------7---7---------5---5--------|
---7-------7-----6-------6-----7-------7-----7-------7------|
-----------------------------0-------------0----------------|
-7-------------0--------------------------------------------|

-------8-------------8--------------7--------------7--------|
-----6---6---------6---6---------10---10--------10---10-----|
---9-------9-----9-------9-----9---------9----9---------9---|
------------------------------------------------------------|
-0-------------0--------------------------------------------|
-----------------------------8--------------8---------------|

-------7-------------4-------------1------------------------|
-----6---6---------3---3---------0---0-----------3----------|
---7-------7-----4-------4-----1-------1-------1---1--------|
-6-------------3-------------0---------------3-------3------|
-------------------------------------------2----------------|
------------------------------------------------------------|

------------------------------------------------------------|
-------3-------------0-------------1-------------0----------|
-----4---4---------1---1---------2---2---------1---1--------|
---3-------3-----0-------0-----2-------2-----2-------2------|
------------------------------------------------------------|
-4-------------1-------------0-------------0----------------|

---------------------0-----------0-5-7-----8----------------|
-------1-----------1---1-------1-----3-----5----------------|
-----2---2-------2-------2---2------------------------------|
---2-------2---2--------------------------------------------|
-0----------------------------------------------------------|
-----------------------------------------------5------------|

Let the last note ring and fade.

Great Song !
Have Fun =D

JRayz
comments
print report bad tab
1 comment total.
0 reply
x79animal 151 wrote on July 13 2011, 01:25 am


-------8-------------8--------------8--------------8--------|
-----6---6---------6---6---------10---10--------10---10-----|
---9-------9-----9-------9-----9---------9----9---------9---|
------------------------------------------------------------|
-0-------------0--------------------------------------------|
-----------------------------8--------------8---------------|


the 8 is actually a 7 on the second part


-------8-------------8--------------7--------------7--------|
-----6---6---------6---6---------10---10--------10---10-----|
---9-------9-----9-------9-----9---------9----9---------9---|
------------------------------------------------------------|
-0-------------0--------------------------------------------|
-----------------------------8--------------8---------------|

I want to post or [tab]
guest
You may want to rate the tab now too:
select rating
Please do not post tabs as comments. Select "correction" instead!