Oops, an error
Loading. Please wait.

Ten Words Tab

version 1
version 1

Intro

Whole song

Interactive

7,947 views 6 this week
16 commentsread comments
1 2 3 4 5
accurate
x 3
add to favorites
launch autoscroll
font size
0
reset
how to read this tab
guitar tuner
Tab Pro tools
  • play this tab
  • loop segment
  • change instrument
  • show fretboard
  • metronome
×
Best way to learn
"Ten Words"
Autoscroll
slow
fast
+/-
esc
set tempo
stop
Contributor
Difficulty
intermediate
This is everything up until the solo which I'll be working on soon and will add 
is a great song, not the most technically difficult but has a lot of feeling to it....enjoy! =D


E-----------------------------------------------------------------|
B-----------------------------------------------------------------|
G-----------------------------------------------------------------|
D-----------------------------------------------------------------|
A-------10-10-10-10---10------------------------------------------|
E-/12-----------------------12---12-108------5-8---8-5-8/12-12----|

E--------------------------------------------------------|
B--------------------------------------------------------|
G--------------------------------------------------------|
D--------------------------------------------------------|
A--------------10b(12)r(10)------------------------------|
E-12--12-10-12--------------12--108---5-8--8-5-8/10-10---|

E-----------------------------------------------------------------|
B-----------------------------------------------------------------|
G-----------------------------------------------------------------|
D-----------------------------------------------------------------|
A------------------------------------------10b(12)r(10)-----------|
E--10/12--12-12--108-10-8-5-8-5--8-10/12--------------10/128-8----|

E-------------------------------|
B-------------------------------|
G-------------------------------|
D-------------------------------|
A-----10------10----------------|
E-8-------8-7----7--5--8-8/10-8-|

E-------------------------------|
B----8-----8--------------------|
G--5---5-4---4-2--5-5/7-5-------|
D-------------------------------|
A-------------------------------|
E-------------------------------|

E--------------------------------------------------|
B--------------------------------------------------|
G-/9--12-12-12-12---12--9---75------5-5---5--/9----|
D---------------------------------7------7----/10--|
A--------------------------------------------------|
E--------------------------------------------------|

E---------------------------------------------------|
B---------------------------------------------------|
G-/9--9----9--12b(14)r(12)-9------------5-5---5/7-7-|
D-------12-------------------12-10----7-----7-------|
A---------------------------------------------------|
E---------------------------------------------------|

E----------------------------------------------------|
B-------------------------------------10-8-----------|
G--7/9-9-PH(9)-9--7-5-7-5---5----7-9--------95-5-----|
D-------------------------7---7----------------------|
A----------------------------------------------------|
E----------------------------------------------------|

E-------8-----8-----------------|
B-----5---5-4---4-2--5-5/7-5----|
G-------------------------------|
D-------------------------------|
A-------------------------------|
E-------------------------------|
comments
We did not receive enough feedback on this tab! Please rate:
print report bad tab
1 2 3 4 5
16 comments total. Showing first comments.
0 reply
little_aligator wrote on June 5 2006, 10:07 am

thanks so much. was waitin for sum1 2 tab this. great job!

0 reply
little_aligator wrote on June 8 2006, 11:14 am

do u know the tabs for theme from a strange world?

0 reply
SuperColossal68 wrote on June 8 2006, 02:55 pm

I haven't tried to figure it out yet..I can try sometime though...

I want to post or [tab]
guest
You may want to rate the tab now too:
select rating
Please do not post tabs as comments. Select "correction" instead!