Oops, an error
Loading. Please wait.

Ten Words Tab

version 1
version 1

Solo

Whole song

Interactive

13,195 views 24 this week
no commentswrite comment
1 2 3 4 5
accurate
x 3
add to favorites
launch autoscroll
font size
0
reset
how to read this tab
guitar tuner
Autoscroll
slow
fast
+/-
esc
set tempo
stop
Help us to improve Ultimate-Guitar.com Take our survey!
×
Author
Difficulty
intermediate
Here is the entire solo part for Joe Satriani's Ten Words.
** Tabbed this originally on Guitar Pro **   

----------------------------------------------------------

JOE SATRIANI: TEN WORDS - SOLO




SOLO


     H        S S S S S S S S    S S E  S S E  Q    E  E   
E||-----------5---------------|---------------------------|
B||-------------8-5---5-------|---------------------------|
G||-----------------7---7-5---|--7---5--------------5-----|
D||--L----------------------7-|----7----7-5-7--L----------|
A||---------------------------|---------------------------|
E||---------------------------|---------------------------|


  E  S S S S S S S S S S S S  S S    S  S S Q     E.  S S S  S S S  
-----5--------------------------5-|-----5---8b----L---8---8p-7---7-|
-------8-5---5----------------5---|--8b---5-------------8------8---|
-----------7---5-7-5---7-5-7b-----|--------------------------------|
---------------------7------------|--------------------------------|
----------------------------------|--------------------------------|
----------------------------------|--------------------------------|


  S   S  Q     E  E   S   S  S  S   S  S  
-----------------------------------------|
--8s-10-10~----8-------------------------|
--------------------------------------12-|
----------------------------10-12s-14----|
---------------------10h-12--------------|
-----------------------------------------|


   S   S   S   S  Q       S   S  E.    E.    
--------------------------------------------|
-----------------12b~-----------15b---15b---|
--14p-12h-14p-12---------14p-12-------------|
--------------------------------------------|
--------------------------------------------|
--------------------------------------------|


   E.    S  E      E   E    E   E      E   
--------15-----------------15-------------|
--15b----L-15pbr--13--15b---L--15pbr--13--|
------------------------------------------|
------------------------------------------|
------------------------------------------|
------------------------------------------|


      Q.       S   S   S   S  S  S  Q      
------------------------------------------|
--13g15~------13p-10h-13p-10----10--------|
-----------------------------12----12~----|
------------------------------------------|
------------------------------------------|
------------------------------------------|


      |---3---|                                      
   S  S   S   S  S  S  S S  S  S  S  S S  S S  S  S  
----------------------------------------------------|
--12-13p-12p-10-12-10-------------------------------|
----------------------12-9--------------------------|
---------------------------12-10-12-10-9-10-9----10-|
----------------------------------------------12----|
----------------------------------------------------|


      S  S  S   S  S  S  S  S  S  S  S  S  S  S  S  S  
---------------------15-15-15-15-17-17-17-17-19-19-19-|
------------------17----------------------------------|
--------12-14s-17-------------------------------------|
--12g14-----------------------------------------------|
------------------------------------------------------|
------------------------------------------------------|


   S  S   Q      E   E   S  S  Q      
--19-19b-17~----17\-----17----20b----|
---------------------------17--------|
-------------------------------------|
-------------------------------------|
-------------------------------------|
-------------------------------------|


                         |--3--|      |--3--|      
  S  S  S  S  S  Q       S  S  S  S.  S  S  S  S.  
--L-20-17----17---------17-----------17-----------|
----------20----20b~-------20-17--------20-17-----|
---------------------------------19b----------19b-|
--------------------------------------------------|
--------------------------------------------------|
--------------------------------------------------|


   |--3--|  |--3--|   |---3--|  |--3--|  |--3--|  |--3--|  |--3--|  3  3  
   S  S  S  S  S  S   S   S  S  S  S  S  S  S  S  S  S  S  S  S  S  S. S. 
--17---------------------------------------------------------------------|
-----20-17----17---------------------------------------------------------|
-----------20----20p-19p-17----19----17----------------------------------|
----------------------------19----19----19-17----------------------------|
----------------------------------------------19-17-15-17-15----15-17-15-|
-------------------------------------------------------------17----------|


             |--3--|  |--3--|  |--3--|  |--3--|  |--3--|  |--3--|  
      Q      S  S  S  S  S  S  S  S  S  S  S  S  S  S  S  S  S  S  
------------------------------------------------------------------|
------------------------------------------------------------------|
------------------------------------------------------------------|
------------17--L-17--L-17--L-17--L-17--L-17--L-17--L-17--L-17--L-|
--17g19~-------19--L-19--L-19--L-19--L-19--L-19--L-19--L-19--L-19-|
------------------------------------------------------------------|


   E       S  S  S  S  S S  E      S  S  S  S  E     
----------------------------------------------------|
----------------------------------------------------|
----------------------------------------------------|
--17~-----------------------------------------------|
-------19g17-15-17-15------15--19g17-15-17-15-14br--|
----------------------17----------------------------|


  E.   S  Q     E   E   E.   S    E  Q    H        E    
-------------------------------|----------------------||
-------------------------------|----------------------||
-------------------------------|----------------------||
-------------------------------|-----5----5--------L--||
--L---------------------2b-----|--5--5----5--------L--||
------15-15~----L--/7\-------3-|--3-------------------||




Duration Legend
---------------
W - whole
H - half
Q - quarter
E - 8th
S - 16th
T - 32nd
X - 64th
. - note dotted
|-n-|  - n-tuplets


Tablature Legend
----------------
L - tied note
x - dead note
g - grace note
(n) - ghost note
> - accentuded note
NH - natural harmonic
AH - artificial harmonic
TH - tapped harmonic
SH - semi harmonic
PH - pitch harmonic
h - hammer on
p - pull off
b - bend
br - bendRelease
pb - preBend
pbr - preBendRelease
brb - bendReleaseBend
\n/ - tremolo bar dip
\n - tremolo bar dive
-/n - tremolo bar Release up
/n\ - tremolo bar inverted dip
/n - tremolo bar return
-\n - tremolo bar Release down
S - shift slide
s - legato slide
/ -  slide into from below or out of upwards
\ -  slide into from above or out of downwards
~ - vibrato
W - wide vibrato
tr - trill
TP - tremolo picking
T - tapping
S - slap
P - pop
< - fade in
^ - brush up
v - brush down
Suggest correction
What's this?
You can suggest a correction to this tab. Community and Mods will review your correction and vote to approve or reject it.
comments
We did not receive enough feedback on this tab! Please rate:
print report bad tab
1 2 3 4 5
guest
You may want to rate the tab now too:
select rating
Please do not post tabs as comments. Select "correction" instead!