Oops, an error
Loading. Please wait.

Ten Words Tab

version 1
version 1

Whole song

Interactive

Video

62,222 views 66 this week
5 commentsread comments
1 2 3 4 5
x 17
add to favorites
launch autoscroll
font size
0
reset
how to read this tab
guitar tuner
×
Best way to learn
"Ten Words"
Autoscroll
slow
fast
+/-
esc
set tempo
stop
Difficulty
intermediate
e|----------------------------------------------------------------|
B|----------------------------------------------------------------|
G|----------------------------------------------------------------|
D|----------------------------------------------------------------|
A|-------10-10-10-10---10-----------------------------------------|
E|-/12-----------------------12---12-10\8------5-8---8-5-8/12-12--|

e|----------------------------------------------------------------|
B|----------------------------------------------------------------|
G|----------------------------------------------------------------|
D|----------------------------------------------------------------|
A|--------------10b(12)r(10)--------------------------------------|
E|-12--12-10-12--------------12--10\8---5-8--8-5-8/10-10----------|

e|----------------------------------------------------------------|
B|----------------------------------------------------------------|
G|----------------------------------------------------------------|
D|----------------------------------------------------------------|
A|------------------------------------------10b(12)r(10)----------|
E|--10/12--12-12--10\8-10-8-5-8-5--8-10/12--------------10/12\8-8-|

e|-------------------------------|
B|-------------------------------|
G|-------------------------------|
D|-------------------------------|
A|-----10------10----------------|
E|-8-------8-7----7--5--8-8/10-8-|

e|------------------------------------------------------|
B|------------------------------------------------------|
G|-------12-------------------12------------------------|
D|------------------------------------------------------|
A|-14h15-----15--14---(14)h15-----14--12--15--15/17-15--|
E|------------------------------------------------------|

e|----------------------------------------------------------------|
B|----------------------------------------------------------------|
G|-/9--12-12-12-12---12--9---7\5------5-5---5--/9-----------------|
D|---------------------------------7------7----/10----------------|
A|----------------------------------------------------------------|
E|----------------------------------------------------------------|

e|----------------------------------------------------------------|
B|----------------------------------------------------------------|
G|-/9--9----9--12b(14)r(12)-9------------5-5---5/7-7--------------|
D|-------12-------------------12-10----7-----7--------------------|
A|----------------------------------------------------------------|
E|----------------------------------------------------------------|

e|----------------------------------------------------------------|
B|-------------------------------------10-8-----------------------|
G|--7/9-9-PH(9)-9--7-5-7-5---5----7-9--------9\5-5----------------|
D|-------------------------7---7----------------------------------|
A|----------------------------------------------------------------|
E|----------------------------------------------------------------|

e|-------8-----8-----------------|
B|-----5---5-4---4-2--5-5/7-5----|
G|-------------------------------|
D|-------------------------------|
A|-------------------------------|
E|-------------------------------|

[SOLO]
e|--------------------------------------------------------------------|
B|-10-8---------------------------------------------------------------|
G|------9-7-9-7--------7----------------------------------------------|
D|--------------10-7------10-7--------(slight pinch)7----10-----------|
A|----------------------------p.m.10----------------------------------|
E|--------------------------------------------------------------------|

e|---------------------------------------------------8/10-------------|
B|--10-8-----------------------------10---------10--------------------|
G|-------9-7-9----7------7----7/9-12----12b(14)-----------------------|
D|-------------10---10-7---10-----------------------------------------|
A|--------------------------------------------------------------------|
E|--------------------------------------------------------------------|

e|--8-----8\7----7----------------------------------------------------|
B|----10------10---8/10---8----------------------10----10----13-------|
G|-----------------------------------------9h12-----12----12----------|
D|-----------------------------------10h12----------------------------|
A|-----------------------------10h12----------------------------------|
E|--------------------------------------------------------------------|

e|------------------------------------15-------------------------15---------|
B|--10-13-15b(17)r(15)b(17)r(15)b(17)----(17)r(15)p(13)--15b(17)---(17)r(15-|
G|--------------------------------------------------------------------------|
D|--------------------------------------------------------------------------|
A|--------------------------------------------------------------------------|
E|--------------------------------------------------------------------------|

e|--------------------------------------------------------------------|
B|-13h15---13----13---------------------------------------------------|
G|------------14----14-12-14-12--14b(16)r(14)p12-14-14b(16)-14-12-----|
D|--------------------------------------------------------------------|
A|--------------------------------------------------------------------|
E|--------------------------------------------------------------------|

e|------------------------------------------12/15-15-15-15/17-17-17-17/19-|
B|------------------------------------------------------------------------|
G|------------------------------------14-17-------------------------------|
D|-14-12----12------------------14-17-------------------------------------|
A|-------15---15-14-15-14-12-15-------------------------------------------|
E|------------------------------------------------------------------------|

e|-19-19-19/20--17--17\----17-----20b(22)---------------------------------|
B|-----------------------------17-----------------------------------------|
G|-----------------------------------------After that bend I just---------|
D|-----------------------------------------sorta improvise the last-------|
A|-----------------------------------------little bit of the solo to------|
E|-----------------------------------------sound like what satch plays----|

e|----------------------------------------------------------------|
B|----------------------------------------------------------------|
G|----------------------------------------------------------------|
D|----------------------------------------------------------------|
A|-------10-10-10-10---10-----------------------------------------|
E|-/12-----------------------12---12-10\8------5-8---8-5-8/12-12--|

e|----------------------------------------------------------------|
B|----------------------------------------------------------------|
G|----------------------------------------------------------------|
D|----------------------------------------------------------------|
A|--------------10b(12)r(10)--------------------------------------|
E|-12--12-10-12--------------12--10\8---5-8--8-5-8/10-10----------|

e|----------------------------------------------------------------|
B|----------------------------------------------------------------|
G|----------------------------------------------------------------|
D|----------------------------------------------------------------|
A|------------------------------------------10b(12)r(10)----------|
E|--10/12--12-12--10\8-10-8-5-8-5--8-10/12--------------10/12\8-8-|

e|-------------------------------|
B|-------------------------------|
G|-------------------------------|
D|-------------------------------|
A|-----10------10----------------|
E|-8-------8-7----7--5--8-8/10-8-|

e|------------------------------------------------------|
B|------------------------------------------------------|
G|-------12-------------------12------------------------|
D|------------------------------------------------------|
A|-14h15-----15--14---(14)h15-----14--12--15--15/17-15--|
E|------------------------------------------------------|

I don't know exactly how satch does the end, it sounds like a harmonic with the whammy 
is all...but other than that and the last little bit of the solo this is all pretty much right..

************************************

| /  Slide up
| \  Slide down
| h  Hammer-on

************************************
Suggest correction
comments
print report bad tab
5 comments total. Showing first comments.
0 reply
fanu2 3,848 Oct 01, 2006 10:40 AM

great tab for this solo by Satriani, great work mr Joe Satriani

+1 reply
Gibsonfan! 74 Apr 16, 2009 12:01 PM

E-------8-----8-----------------|
B-----5---5-4---4-2--5-5/7-5----|
G-------------------------------|
D-------------------------------|
A-------------------------------|
E-------------------------------|

should be on the e and g strings

+2 reply
jordanh320 10 Nov 19, 2009 06:11 AM

gibsonfan i think you mean on the b and g strings

guest
You may want to rate the tab now too:
select rating
Wanna post a correction for this tab? Suggest correction