Oops, an error
Loading. Please wait.

Ten Words Tab

version 2
version 2

Whole song

Interactive

Video

6,578 views 1 this week
no commentswrite comment
1 2 3 4 5
please rate
add to favorites
launch autoscroll
font size
0
reset
how to read this tab
guitar tuner
Autoscroll
slow
fast
+/-
esc
set tempo
stop
Help us to improve Ultimate-Guitar.com Take our survey!
×
(intro)

E----------------------------------------------------------------|
B----------------------------------------------------------------|
G----------------------------------------------------------------|
D-10-10-10-10-10-10-10-10-10-10-10-10-10-10-10-10----------------|
A-10-10-10-10-10-10-10-10-10-10-10-10-10-10-10-10----------------|
E-8--8--8--8--8--8--8--8--8--8--8--8--8--8--8--8-----------------|

(Verse1)

E----------------------------------------------------------------|
B----------------------------------------------------------------|
G----------------------------------------------------------------|
D-10-10-10-10-10-10-10-10-2--2--2--2--2--2--2--2--3--3--3--3-----|
A-10-10-10-10-10-10-10-10-2--2--2--2--2--2--2--2--3--3--3--3-----|
E-8--8--8--8--8--8--8--8--0--0--0--0--0--0--0--0--1--1--1--1-----|

E----------------------------------------------------------------|
B----------------------------------------------------------------|
G----------------------------------------------------------------|
D-3--3--3--3--10-10-10-10-10-10-10-10-7--7--7--7--7--7--7--7-----|
A-3--3--3--3--10-10-10-10-10-10-10-10-7--7--7--7--7--7--7--7-----|
E-1--1--1--1--8--8--8--8--8--8--8--8--5--5--5--5--5--5--5--5-----|

E----------------------------------------------------------------|
B----------------------------------------------------------------|
G----------------------------------------------------------------|
D-2--2--2--2--2--2--2--2--3--3--3--3--3--3--3--3--5--5--5--5-----|
A-2--2--2--2--2--2--2--2--3--3--3--3--3--3--3--3--5--5--5--5-----|
E-0--0--0--0--0--0--0--0--1--1--1--1--1--1--1--1--3--3--3--3-----|

E----------------------------------------------------------------|
B----------------------------------------------------------------|
G----------------------------------------------------------------|
D-5--5--5--5--2--2--2--2--2--2--2--2--3--3--3--3--3--3--3--3-----|
A-5--5--5--5--2--2--2--2--2--2--2--2--3--3--3--3--3--3--3--3-----|
E-3--3--3--3--0--0--0--0--0--0--0--0--1--1--1--1--1--1--1--1-----|

E----------------------------------------------------------------|
B----------------------------------------------------------------|
G----------------------------------------------------------------|
D-7--7--7--7--7--7--7--7--3--3--3--3--3--3--3--3--10-10-10-10----|
A-7--7--7--7--7--7--7--7--3--3--3--3--3--3--3--3--10-10-10-10----|
E-5--5--5--5--5--5--5--5--1--1--1--1--1--1--1--1--8--8--8--8-----|

E----------------------------------------------------------------|
B----------------------------------------------------------------|
G----------------------------------------------------------------|
D-10-10-10-10-2--2--2--2--2--2--2--2--3--3--3--3--3--3--3--3-----|
A-10-10-10-10-2--2--2--2--2--2--2--2--3--3--3--3--3--3--3--3-----|
E-8--8--8--8--0--0--0--0--0--0--0--0--1--1--1--1--1--1--1--1-----|

E----------------------------------------------------------------|
B----------------------------------------------------------------|
G----------------------------------------------------------------|
D-10-10-10-10-10-10-10-10----------------------------------------|
A-10-10-10-10-10-10-10-10----------------------------------------|
E-8--8--8--8--8--8--8--8-----------------------------------------|

(Bridge)---not entirely sure about this rythm, I just put in a few chords
with extra notes and it sounds close to me

E-3----3----3-3---3----3----3-3-------------------3----3----3-3--|
B-1--1-1--1-1-1---0--0-0--0-0-0-------------------1--1-1--1-1-1--|
G-0--0-0--0-0-0---0--0-0--0-0-0--2--2-2--2--2-2---0--0-0--0-0-0--|
D-2--2-2--2-2-2---2--2-2--2-2-2--2--2-2--2--2-2---2--2-2--2-2-2--|
A-3--3-3--3-3-3---2--2-2--2-2-2--0--0-0--0--0-0---3--3-3--3-3-3--|
E----------------------------------------------------------------|

(Verse2--same as verse one but I'll tab it anyway =D)

E----------------------------------------------------------------|
B----------------------------------------------------------------|
G----------------------------------------------------------------|
D-10-10-10-10-10-10-10-10-2--2--2--2--2--2--2--2--3--3--3--3-----|
A-10-10-10-10-10-10-10-10-2--2--2--2--2--2--2--2--3--3--3--3-----|
E-8--8--8--8--8--8--8--8--0--0--0--0--0--0--0--0--1--1--1--1-----|

E----------------------------------------------------------------|
B----------------------------------------------------------------|
G----------------------------------------------------------------|
D-3--3--3--3--10-10-10-10-10-10-10-10-7--7--7--7--7--7--7--7-----|
A-3--3--3--3--10-10-10-10-10-10-10-10-7--7--7--7--7--7--7--7-----|
E-1--1--1--1--8--8--8--8--8--8--8--8--5--5--5--5--5--5--5--5-----|

E----------------------------------------------------------------|
B----------------------------------------------------------------|
G----------------------------------------------------------------|
D-2--2--2--2--2--2--2--2--3--3--3--3--3--3--3--3--5--5--5--5-----|
A-2--2--2--2--2--2--2--2--3--3--3--3--3--3--3--3--5--5--5--5-----|
E-0--0--0--0--0--0--0--0--1--1--1--1--1--1--1--1--3--3--3--3-----|

E----------------------------------------------------------------|
B----------------------------------------------------------------|
G----------------------------------------------------------------|
D-5--5--5--5--2--2--2--2--2--2--2--2--3--3--3--3--3--3--3--3-----|
A-5--5--5--5--2--2--2--2--2--2--2--2--3--3--3--3--3--3--3--3-----|
E-3--3--3--3--0--0--0--0--0--0--0--0--1--1--1--1--1--1--1--1-----|

E----------------------------------------------------------------|
B----------------------------------------------------------------|
G----------------------------------------------------------------|
D-7--7--7--7--7--7--7--7--3--3--3--3--3--3--3--3--10-10-10-10----|
A-7--7--7--7--7--7--7--7--3--3--3--3--3--3--3--3--10-10-10-10----|
E-5--5--5--5--5--5--5--5--1--1--1--1--1--1--1--1--8--8--8--8-----|

E----------------------------------------------------------------|
B----------------------------------------------------------------|
G----------------------------------------------------------------|
D-10-10-10-10-2--2--2--2--2--2--2--2--3--3--3--3--3--3--3--3-----|
A-10-10-10-10-2--2--2--2--2--2--2--2--3--3--3--3--3--3--3--3-----|
E-8--8--8--8--0--0--0--0--0--0--0--0--1--1--1--1--1--1--1--1-----|

E------------------------|----------------------------------------|
B------------------------|--------(solo starts here)--------------|
G------------------------|----------------------------------------|
D-10-10-10-10-10-10-10-10|-10-10-10-10-10-10-10-10----------------|
A-10-10-10-10-10-10-10-10|-10-10-10-10-10-10-10-10----------------|
E-8--8--8--8--8--8--8--8-|-8--8--8--8--8--8--8--8-----------------|

(solo rythm)

E-------------------------------------------------------------------|
B-------------------------------------------------------------------|
G-------------------------------------------------------------------|
D-7--7--7--7--7--7--7--7--7--7--7--7--7--7--7--7--------------------|
A-7--7--7--7--7--7--7--7--7--7--7--7--7--7--7--7--------------------|
E-5--5--5--5--5--5--5--5--5--5--5--5--5--5--5--5--------------------|

E-----------------------------------------------------------------|
B-----------------------------------------------------------------|
G-----------------------------------------------------------------|
D-3--3--3--3--3--3--3--3--3--3--3--3--3--3--3--3------------------|
A-3--3--3--3--3--3--3--3--3--3--3--3--3--3--3--3------------------|
E-1--1--1--1--1--1--1--1--1--1--1--1--1--1--1--1------------------|

E-----------------------------------------------------------------|
B-----------------------------------------------------------------|
G-----------------------------------------------------------------|
D-10-10-10-10-10-10-10-10-10-10-10-10-10-10-10-10-----------------|
A-10-10-10-10-10-10-10-10-10-10-10-10-10-10-10-10-----------------|
E-8--8--8--8--8--8--8--8--8--8--8--8--8--8--8--8------------------|

E-----------------------------------------------------------------|
B-----------------------------------------------------------------|
G-----------------------------------------------------------------|
D-5--5--5--5--5--5--5--5--5--5--5--5--5--5--5--5------------------|
A-5--5--5--5--5--5--5--5--5--5--5--5--5--5--5--5------------------|
E-3--3--3--3--3--3--3--3--3--3--3--3--3--3--3--3------------------|

E-------------------------------------------------------------------|
B-------------------------------------------------------------------|
G-------------------------------------------------------------------|
D-7--7--7--7--7--7--7--7--7--7--7--7--7--7--7--7--------------------|
A-7--7--7--7--7--7--7--7--7--7--7--7--7--7--7--7--------------------|
E-5--5--5--5--5--5--5--5--5--5--5--5--5--5--5--5--------------------|

E-----------------------------------------------------------------|
B-----------------------------------------------------------------|
G-----------------------------------------------------------------|
D-3--3--3--3--3--3--3--3--3--3--3--3--3--3--3--3------------------|
A-3--3--3--3--3--3--3--3--3--3--3--3--3--3--3--3------------------|
E-1--1--1--1--1--1--1--1--1--1--1--1--1--1--1--1------------------|

E-----------------------------------------------------------------|
B-----------------------------------------------------------------|
G-----------------------------------------------------------------|
D-10-10-10-10-10-10-10-10-10-10-10-10-10-10-10-10-----------------|
A-10-10-10-10-10-10-10-10-10-10-10-10-10-10-10-10-----------------|
E-8--8--8--8--8--8--8--8--8--8--8--8--8--8--8--8------------------|

E-----------------------------------------------------------------|
B-----------------------------------------------------------------|
G-----------------------------------------------------------------|
D-5--5--5--5--5--5--5--5--5--5--5--5--5--5--5--5------------------|
A-5--5--5--5--5--5--5--5--5--5--5--5--5--5--5--5------------------|
E-3--3--3--3--3--3--3--3--3--3--3--3--3--3--3--3------------------|

(Verse3---once again same as verse 1 and two)

E----------------------------------------------------------------|
B----------------------------------------------------------------|
G----------------------------------------------------------------|
D-10-10-10-10-10-10-10-10-2--2--2--2--2--2--2--2--3--3--3--3-----|
A-10-10-10-10-10-10-10-10-2--2--2--2--2--2--2--2--3--3--3--3-----|
E-8--8--8--8--8--8--8--8--0--0--0--0--0--0--0--0--1--1--1--1-----|

E----------------------------------------------------------------|
B----------------------------------------------------------------|
G----------------------------------------------------------------|
D-3--3--3--3--10-10-10-10-10-10-10-10-7--7--7--7--7--7--7--7-----|
A-3--3--3--3--10-10-10-10-10-10-10-10-7--7--7--7--7--7--7--7-----|
E-1--1--1--1--8--8--8--8--8--8--8--8--5--5--5--5--5--5--5--5-----|

E----------------------------------------------------------------|
B----------------------------------------------------------------|
G----------------------------------------------------------------|
D-2--2--2--2--2--2--2--2--3--3--3--3--3--3--3--3--5--5--5--5-----|
A-2--2--2--2--2--2--2--2--3--3--3--3--3--3--3--3--5--5--5--5-----|
E-0--0--0--0--0--0--0--0--1--1--1--1--1--1--1--1--3--3--3--3-----|

E----------------------------------------------------------------|
B----------------------------------------------------------------|
G----------------------------------------------------------------|
D-5--5--5--5--2--2--2--2--2--2--2--2--3--3--3--3--3--3--3--3-----|
A-5--5--5--5--2--2--2--2--2--2--2--2--3--3--3--3--3--3--3--3-----|
E-3--3--3--3--0--0--0--0--0--0--0--0--1--1--1--1--1--1--1--1-----|

E----------------------------------------------------------------|
B----------------------------------------------------------------|
G----------------------------------------------------------------|
D-7--7--7--7--7--7--7--7--3--3--3--3--3--3--3--3--10-10-10-10----|
A-7--7--7--7--7--7--7--7--3--3--3--3--3--3--3--3--10-10-10-10----|
E-5--5--5--5--5--5--5--5--1--1--1--1--1--1--1--1--8--8--8--8-----|

E----------------------------------------------------------------|
B----------------------------------------------------------------|
G----------------------------------------------------------------|
D-10-10-10-10-2--2--2--2--2--2--2--2--3--3--3--3--3--3--3--3-----|
A-10-10-10-10-2--2--2--2--2--2--2--2--3--3--3--3--3--3--3--3-----|
E-8--8--8--8--0--0--0--0--0--0--0--0--1--1--1--1--1--1--1--1-----|

E----------------------------------------------------------------|
B----------------------------------------------------------------|
G----------------------------------------------------------------|
D-10-10-10-10-10-10-10-10----------------------------------------|
A-10-10-10-10-10-10-10-10----------------------------------------|
E-8--8--8--8--8--8--8--8-----------------------------------------|

(Bridge Repeat)

E-3----3----3-3---3----3----3-3-------------------3----3----3-3--|
B-1--1-1--1-1-1---0--0-0--0-0-0-------------------1--1-1--1-1-1--|
G-0--0-0--0-0-0---0--0-0--0-0-0--2--2-2--2--2-2---0--0-0--0-0-0--|
D-2--2-2--2-2-2---2--2-2--2-2-2--2--2-2--2--2-2---2--2-2--2-2-2--|
A-3--3-3--3-3-3---2--2-2--2-2-2--0--0-0--0--0-0---3--3-3--3-3-3--|
E----------------------------------------------------------------|

Song Ending...
Suggest correction
Give kudos to tab author, rate the tab!
1 2 3 4 5
comments
print report bad tab
guest
You may want to rate the tab now too:
select rating
Wanna post a correction for this tab? Suggest correction