Oops, an error
Loading. Please wait.

Ten Words Tab

version 3
version 3

Whole song

Interactive

Video

21,353 views 9 this week
no commentswrite comment
1 2 3 4 5
excellent!
x 6
add to favorites
launch autoscroll
font size
0
reset
how to read this tab
guitar tuner
Tab Pro tools
  • play this tab
  • loop segment
  • change instrument
  • show fretboard
  • metronome
×
Best way to learn
"Ten Words"
Autoscroll
slow
fast
+/-
esc
set tempo
stop
Contributor
-----------------------------------------------------------------------
                             10 Words – Joe Satriani
-----------------------------------------------------------------------
Tabbed by: Mike Callahan
Email: somepeoplecallmemike@hotmail.com
Tuning: standard (E,B,G,D,A,E) 
Thanks to ebm245 for the solo

e|--------------------------------------------------------------------|
B|--------------------------------------------------------------------|
G|--------------------------------------------------------------------|
D|------5555-5--------------------------------------7-5---------------|
A|--/7----------7-7-5-3-----3-3---3-/7-7---/7-7-5-7-----7-5-3---3-3---|
E|-----------------------5------5-----------------------------5-----5-|

e|--------------------------------------------------------------------|
B|--------------------------------------------------------------------|
G|--------------------------------------------------------------------|
D|--------------------------------7-5--------5------5-----------------|
A|-3-55--/7-7-7-5-3-5-3---3---5/7-----7-3--3---3--2---2----3-/5-3-----|
E|----------------------5---5----------------------------5------------|

e|--------------------------------------------------------------------|
B|----8-------8----------------------8888-8---------------------------|
G|-----------------------/7-5-----/9--------9-9-7-5---5-5---/9-9--9-9-|
D|-10---10--9---9--7-10-----------------------------7-----7-----------|
A|--------------------------------------------------------------------|
E|--------------------------------------------------------------------|

e|--------------------------------------------------------------------|
B|-----10-8------------------------------------------------10-8-------|
G|-7-9------9-7-5---5-5---5-7-7—--9-9-9-7-5-7-5---5----7/9------9-5---|
D|----------------7-----7-----------------------7---7-----------------|
A|--------------------------------------------------------------------|
E|--------------------------------------------------------------------|

e|--------------------------------------------------------------------|
B|----8-------8-------------------------------------------------------|
G|---------------------/7-5-------------------------------------------|
D|-10---10--9---9-7-10------------------------------------------------|
A|--------------------------------------------------------------------|
E|--------------------------------------------------------------------|

SOLO:

     H        S S S S S S S S    S S E  S S E  Q    E  E   
E||-----------5---------------|---------------------------|
B||-------------8-5---5-------|---------------------------|
G||-----------------7---7-5---|--7---5--------------5-----|
D||--L----------------------7-|----7----7-5-7--L----------|
A||---------------------------|---------------------------|
E||---------------------------|---------------------------|


 


 E  S S S S S S S S S S S S  S S    S  S S Q     E.  S S S  S S S  
-----5--------------------------5-|-----5---8b----L---8---8p-7---7-|
-------8-5---5----------------5---|--8b---5-------------8------8---|
-----------7---5-7-5---7-5-7b-----|--------------------------------|
---------------------7------------|--------------------------------|
----------------------------------|--------------------------------|
----------------------------------|--------------------------------|


  S   S  Q     E  E   S   S  S  S   S  S  
-----------------------------------------|
--8s-10-10~----8-------------------------|
--------------------------------------12-|
----------------------------10-12s-14----|
---------------------10h-12--------------|
-----------------------------------------|


   S   S   S   S  Q       S   S  E.    E.    
--------------------------------------------|
-----------------12b~-----------15b---15b---|
--14p-12h-14p-12---------14p-12-------------|
--------------------------------------------|
--------------------------------------------|
--------------------------------------------|


   E.    S  E      E   E    E   E      E   
--------15-----------------15-------------|
--15b----L-15pbr--13--15b---L--15pbr--13--|
------------------------------------------|
------------------------------------------|
------------------------------------------|
------------------------------------------|


      Q.       S   S   S   S  S  S  Q      
------------------------------------------|
--13g15~------13p-10h-13p-10----10--------|
-----------------------------12----12~----|
------------------------------------------|
------------------------------------------|
------------------------------------------|


      |---3---|                                      
   S  S   S   S  S  S  S S  S  S  S  S S  S S  S  S  
----------------------------------------------------|
--12-13p-12p-10-12-10-------------------------------|
----------------------12-9--------------------------|
---------------------------12-10-12-10-9-10-9----10-|
----------------------------------------------12----|
----------------------------------------------------|


    

  S  S  S   S  S  S  S  S  S  S  S  S  S  S  S  S  
---------------------15-15-15-15-17-17-17-17-19-19-19-|
------------------17----------------------------------|
--------12-14s-17-------------------------------------|
--12g14-----------------------------------------------|
------------------------------------------------------|
------------------------------------------------------|


   S  S   Q      E   E   S  S  Q      
--19-19b-17~----17\-----17----20b----|
---------------------------17--------|
-------------------------------------|
-------------------------------------|
-------------------------------------|
-------------------------------------|


                         |--3--|      |--3--|      
  S  S  S  S  S  Q       S  S  S  S.  S  S  S  S.  
--L-20-17----17---------17-----------17-----------|
----------20----20b~-------20-17--------20-17-----|
---------------------------------19b----------19b-|
--------------------------------------------------|
--------------------------------------------------|
--------------------------------------------------|


   |--3--|  |--3--|   |---3--|  |--3--|  |--3--|  |--3--|  |--3--|  3  3  
   S  S  S  S  S  S   S   S  S  S  S  S  S  S  S  S  S  S  S  S  S  S. S. 
--17---------------------------------------------------------------------|
-----20-17----17---------------------------------------------------------|
-----------20----20p-19p-17----19----17----------------------------------|
----------------------------19----19----19-17----------------------------|
----------------------------------------------19-17-15-17-15----15-17-15-|
-------------------------------------------------------------17----------|


             |--3--|  |--3--|  |--3--|  |--3--|  |--3--|  |--3--|  
      Q      S  S  S  S  S  S  S  S  S  S  S  S  S  S  S  S  S  S  
------------------------------------------------------------------|
------------------------------------------------------------------|
------------------------------------------------------------------|
------------17--L-17--L-17--L-17--L-17--L-17--L-17--L-17--L-17--L-|
--17g19~-------19--L-19--L-19--L-19--L-19--L-19--L-19--L-19--L-19-|
------------------------------------------------------------------|


 
  E       S  S  S  S  S S  E      S  S  S  S  E     
----------------------------------------------------|
----------------------------------------------------|
----------------------------------------------------|
--17~-----------------------------------------------|
-------19g17-15-17-15------15--19g17-15-17-15-14br--|
----------------------17----------------------------|


  E.   S  Q     E   E   E.   S    E  Q    H        E    
-------------------------------|----------------------||
-------------------------------|----------------------||
-------------------------------|----------------------||
-------------------------------|-----5----5--------L--||
--L---------------------2b-----|--5--5----5--------L--||
------15-15~----L--/7\-------3-|--3-------------------||



| /  slide up
| \  slide down
| h  hammer-on
| p  pull-off
| ~  vibrato
| +  harmonic
| x  Mute note
===============================================================================
comments
print report bad tab
I want to post or [tab]
guest
You may want to rate the tab now too:
select rating
Please do not post tabs as comments. Select "correction" instead!