Oops, an error
Loading. Please wait.

The Eight Steps Tab

649 views 1 this week
no commentswrite comment
1 2 3 4 5
3 more votes to show rating
add to favorites
launch autoscroll
font size
0
reset
how to read this tab
guitar tuner
Autoscroll
slow
fast
+/-
esc
set tempo
stop
Help us to improve Ultimate-Guitar.com Take our survey!
×
Author
                   The Eight Steps by Joe Satriani
                               (Intro)

      Tuning: Standard

     Tabbed by marcus101


Gtr I
E--------------------------------------------------------------------------|
B--------------------------------------------------------------------------|
G-------2--------4-----------5--------7------------9---------12------------|
D-----0------------2-------3------------5--------7--------------10---------|
A---4----------------6---7----------------9---11-------------------14---12-|
E-0------------2-------3------------5-------7-------------10----------8----|


-----------------------|
-----------------------|
---9--------8----------|    x2
-8------------7--------|
----------------10-----|
----------7------------|


Gtr I
E---------------------------------------------------------------------------|
B---------------------------------------------------------------------------|
G---------------------------------------------------------------------------|
D-7/9-7/9-9-7/9-7/9-9-7/9-7/9-9-7/9-7/9-9-----------------------------------|
A-7/9-7/9-9-7/9-7/9-9-7/9-7/9-9-7/9-7/9-9-22222222222222222222222222222222--|
E-5/7-5/7-7-5/7-5/7-7-5/7-5/7-7-5/7-5/7-7-00000000000000000000000000000000--|


Gtr I
E----------------------------------------------------------------------------|
B-5/7-7/9-7\5-3--------3/5-5/7-5\3----------5/7-7/9-7\5-3--------3/5-5/7-5\3-|
G-4/6-6/8-6\4-2--------2/4-4/6-4\2-4--------4/6-6/8-6\4-2--------2/4-4/6-4\2-|
D----------------------------------2-----------------------------------------|
A----------------------------------------------------------------------------|
E----------------------------------------------------------------------------|


Gtr II
E---------------------------------------0-----------------------------------|
B----------------3-3--------------------0------------------3-3--------------|
G------------------4--------------------1--------------------4--------------|
D---------------4--4------------------2-2-----------------4--4--------------|
A--------------2---------------------2-------------------2------------------|
E-----------------------------------0---------------------------------------|


Gtr I
-----------|
-3/5-------|
-2/4-------|
-----------|
-----------|
-----------|


Gtr II
--------0--|
--------0--|
--------1--|
------2-2--|
-----2-----|
----0------|


Gtr I
E---------------------------------------------------------------------------|
B-5/7-7/9-10/12-12/14--------14-14-14-14/15\14-12-10-10/12----5/7-7/9-7\5-3-|
G-4/6-6/8--9/11-11/13--------13-13-13-13/14\13-11--9--9/11----4/6-6/8-6\4-2-|
D---------------------------------------------------------------------------|
A---------------------------------------------------------------------------|
E---------------------------------------------------------------------------|


Gtr II
E---------------------------------------------------------0------------------|
B----------------------3-3--------------------------------0------------------|
G------------------------4--------------------------------1------------------|
D---------------------4--4------------------------------2--------------------|
A--------------------2---------------------------------2-------------------2-|
E-----------------------------------------------------0----------------------|


Gtr I
------------------------------|
-------3/5-5/7-5\3-3/5--------|
-------2/4-4/6-4\2-2/4--------|
------------------------------|
------------------------------|
------------------------------|


Gtr II
--------------------------0---|
-3-3----------------------0---|
---4----------------------1---|
4--4--------------------2-2---|
-----------------------2------|
----------------------0-------|


After that it then goes on into the verse.
Suggest correction
Give kudos to tab author, rate the tab!
1 2 3 4 5
comments
print report bad tab
guest
You may want to rate the tab now too:
select rating
Wanna post a correction for this tab? Suggest correction