Oops, an error
Loading. Please wait.

The Meaning Of Love Tab

version 1
version 1

Whole song

Interactive

3,568 views 3 this week
no commentswrite comment
1 2 3 4 5
please rate
add to favorites
launch autoscroll
font size
0
reset
how to read this tab
guitar tuner
Autoscroll
slow
fast
+/-
esc
set tempo
stop
Help us to improve Ultimate-Guitar.com Take our survey!
×
Contributor
This is just a part I added that Satch plays on Satriani Live if you want to add it to the song.
E--------------------|------------------------------------------------|
B--2-4-2-0-2-4-5-7~~-|-7/9--7-9/11--9-11-9/7-9--5-7--4-5-4/2--2/4~~/2-|
G--------------------|------------------------------------------------|
D--------------------|------------------------------------------------|
A--------------------|------------------------------------------------|
E--------------------|------------------------------------------------|

E---------4-6-7-6-4-6--------------------------------------------------|
B--2-4-5---------------7-5-4-2/4--0~~~~--------------------------------|
G----------------------------------------------------------------------|
D----------------------------------------------------------------------|
A----------------------------------------------------------------------|
E----------------------------------------------------------------------|


 Original Song Begins
E------------------------------------------|---------------------------|
B------------------------------------------|---------------------------|
G---4~~~--8/6--6--6--6/8--9-8-9-8-9-8-9-8--|-8/6--6--6--6--6/8--9-8-9--|
D------------------------------------------|---------------------------|
A------------------------------------------|---------------------------|
E------------------------------------------|---------------------------|

E-------------|------------------------------------------|-------------|
B-------------|------------------------------------------|-------------|
G--8-9-8-9-8--|-8/6--6--6--6--6--6--6/8--9-8-9-8-9-8-9-8-|-------------|
D-------------|------------------------------------------|-------------|
A-------------|------------------------------------------|-------------|
E-------------|------------------------------------------|-------------|

E---------------------------------------|------------------------------|
B---------------------------------------|------------------------------|
G--9-8--6/4--6/4--6/4--6/4--6/8--8/4~~~-|-9-8--6/4--6/4--6/4--6/4--6/8-|
D---------------------------------------|------------------------------|
A---------------------------------------|------------------------------|
E---------------------------------------|------------------------------|


               Use Wah                          Whammy Bend
E--------|-------------------------------------------------------------|
B--------|-------------------------------------------------------------|
G-8/4~~~-|--8~~~~---4~~~~---6~~~~---------8~~~~----11b----6~~~~--------|
D--------|-----------------------4/6~~~------------------------4/6-4/6-|
A--------|-------------------------------------------------------------|
E--------|-------------------------------------------------------------|

E--------------------------------------------------------------------|
B---9~~~~-10-9-7---7/5-5---5/9~~~~-------------9~~~~-10-9-7~~~~------|
G-----------------------------------9/6-6~~~~------------------------|
D--------------------------------------------------------------------|
A--------------------------------------------------------------------|
E--------------------------------------------------------------------|


                     Whammy Bend
E--------5/7~~-7/9----b9~~~--9b10r9-7~~~--7b8r7--5~~~----------------|
B--7/5-5----------------------------------------------10--10b11r10---|
G--------------------------------------------------------------------|
D--------------------------------------------------------------------|
A--------------------------------------------------------------------|
E--------------------------------------------------------------------|


                                                     Whammy Bend
E----------------12--10--12b13-|-15b17-17-17b18r17-16-15b--15b17r15--14-|
B--8--8-8/3~~~~----------------|----------------------------------------|
G------------------------------|----------------------------------------|
D------------------------------|----------------------------------------|
A------------------------------|----------------------------------------|
E------------------------------|----------------------------------------|


                                            Hold Bend
E--------13--13b14r13--12~~-----------21b23--23--23--23--23~~~~-------|
B--13b15--------------------16b17~~~~---------------------------0~~~~-|
G---------------------------------------------------------------------|
D---------------------------------------------------------------------|
A---------------------------------------------------------------------|
E---------------------------------------------------------------------|


 w/ Feedback        Whammy Bend
E----------------------------------------------|-----------------------|
B----------------------------------------------|-----------------------|
G--9~~~~b12r9~~~~/7~~~~b~~~~---9~~~~b12r9~~~~~-|-----------------------|
D----------------------------------------------|------------------4-5--|
A----------------------------------------------|---7--5--7--5--7-------|
E----------------------------------------------|-0---------------------|

E-----------------------------------------------------------------------|
B-----------------------------------------------------------------------|
G-------------------------------------------------------------7---7--7--|
D-------------------------4-5-0~~------------------4-5--7-7/9---9-------|
A--7/9-----7--5--7--5--7-------------7--5--7--5--7----------------------|
E-------0-------------------------0-------------------------------------|

E--------------------------|---5-7-8-------5-7-5-------------------------|
B--------------------------|---------5-7-8--------8-7-8-7-5--------------|
G--9--7--9--7---7---7-7~~~-|--------------------------------7-5----------|
D-------------9---9--------|------------------------------------7-5------|
A--------------------------|---------------------------------------------|
E--------------------------|---------------------------------------------|

That's mostly it from that one.Enjoy the song!
Suggest correction What's this?
You can suggest a correction to this tab. Community and Mods will review your correction and vote to approve or reject it.
comments
We did not receive enough feedback on this tab! Please rate:
print report bad tab
1 2 3 4 5
I want to post or [tab]
guest
You may want to rate the tab now too:
select rating
Please do not post tabs as comments. Select "correction" instead!