Oops, an error
Loading. Please wait.

Until We Say Goodbye tab

version 2
version 2

Whole song

Interactive

3,964 views 6 this week
no commentswrite comment
1 2 3 4 5
3 more votes to show rating
add to favorites
×
Save as Personal and add changes to this tab that will be seen only by you. Learn more ›
×
You can save this tab as Personal to edit and correct it or add notes. All changes will be seen only by you. Learn more »
launch autoscroll
font size
0
reset
how to read this tab
guitar tuner
edit
Autoscroll
slow
fast
+/-
esc
set tempo
stop
Author
This is the same as the other text file, but that one was in the wrong key, so I
reposted it with the correct notes. Standard tuning.

e|--------------------------------------------------------------------7----------|
B|-------------4----------4-----------------4-----------4---4----7-9---9-9-------|
G|---4---4---6----6-4-4h6---------4---4---6-------4---4---6----8-----------------|
D|-6---6---6----------------6---6---6---6-------6---6----------------------------|
A|-------------------------------------------------------------------------------|
E|-------------------------------------------------------------------------------|

e|-------------------------------------------------------------------------------|
B|-9h12p9\7--/9--------------4----------4-----------------------------4---4------|
G|--------------------4---4---6----6-4-4h6------3-3b\1-------------4---4---6-----|
D|------------------6---6---6----------------6---------1-1/4-----6---6-----------|
A|-------------------------------------------------------------------------------|
E|-------------------------------------------------------------------------------|

e|--------7----------------------------------------------------------------------|
B|---7-9---9-9-----7---7---7h9---------------------------------------------------|
G|-8----------------8---8---8-------6h8-6h8-6-8--8-9-8h9p8\6-8-6\4---6h8-6h8-----|
D|-------------------------------------------------------------------------------|
A|-------------------------------------------------------------------------------|
E|-------------------------------------------------------------------------------|

e|----------------------------------------------------------------14-12-10-9-----|
B|-------------------------------------------------------------------------------|
G|-6-8--9h10~~~-9-8h9p8\6-6/8----6h8-6h8-6-8--------6---5------------------------|
D|-----------------------------------------------6-6-6-------6-------------------|
A|-------------------------------------------------------------------------------|
E|-------------------------------------------------------------------------------|

e|-6b-p4-\2-/4-|
B|-------------|
G|-------------|
D|-------------|
A|-------------|
E|-------------|

e|------------------6-6-6-6-6-7--7--7-6-7--7-7-7-7--9--9-9--9-6-7---7--6-6--------|
B|------------------6-6-6-6-6-6--6--6-6-6--6-6-6-6--6---6--6---6--6-6---6--6-9----|
G|------------------8-8-8-8-------------------------------------------------------|
D|--------------------------------------------------------------------------------|
A|-6-6-----6-6-6-6----------------------------------------------------------------|
E|-4-4-4-1-4-4-4-4----------------------------------------------------------------|

e|-/9-18-14h16p14\----------------------------------------------------------------|
B|--------------------------------------------------------------------------------|
G|-------------------8h9-8--\6-4/6--6-8-9-8-6h8p6\4-/6-\4-/6------8h9p8\6---------|
D|--------------------------------------------------------------------------------|
A|--------------------------------------------------------------------------------|
E|--------------------------------------------------------------------------------|

e|-------------------9-10-12-9-10-9-10-------/14----------------------------------|
B|----------9h10h12----------------------12-9-----9h12p9\7------------------------|
G|-9h10h14------------------------------------------------------------------------|
D|-------------------------------------------------------------6\4\2\1/2/4/6\4----|
A|--------------------------------------------------------------------------------|
E|--------------------------------------------------------------------------------|

e|------------------------------------------------------12----10-------------------|
B|------------9-7-9--/14-12------------------------14----14----14-12-------12------|
G|-6h8-8b-6-8-----------------14p14-10-14-14b--10-14-------------------14-10-------|
D|---------------------------------------------------------------------------------|
A|---------------------------------------------------------------------------------|
E|---------------------------------------------------------------------------------|

e|---------------------------------------------------------------------------------|
B|---------------------------------------------------------------------------------|
G|-14-------10---------------------------------------------------------------------|
D|----10\9----9h10p9---------------------------------------------------6h7h9-------|
A|----------------------9h10p9-7-9-7\6-7-6-\4-\1-/4-/6-6~~~---4--6h7h9-------------|
E|---------------------------------------------------------------------------------|

e|----------------------------------9-10-9----9-10-10b-9----9----------/14---------|
B|-------------------------9h10h12----------12--------------12----12-9-------------|
G|--------6h8-8~~~--8h9h10----------------------------------------------10---------|
D|-6h7h9---------------------------------------------------------------------------|
A|---------------------------------------------------------------------------------|
E|---------------------------------------------------------------------------------|

e|------------------------------------------------------------------------9--------|
B|------------------------------------------------------------12-9----------9------|
G|-9h10p9--------------------------------8b----------10b-----------12-10-----------|
D|----------9h10p9-----------------9h10----10-9-10---------------------------------|
A|-------------------9---7h9p7\6-7-------------------------------------------------|
E|---------------------------------------------------------------------------------|

e|--------------------------------------------------------------------14b-12-------|
B|-12-9--------------------------------------------14---------12-14----------------|
G|-------12-10-9----10-9-----------------------------10b--14-----------------------|
D|----------------10-------10-9------------9-/10-----------------------------------|
A|-------------------------------10-10-9-------------------------------------------|
E|---------------------------------------------------------------------------------|

e|--------------------------14b---17-14-14h16p14\----------------------------------|
B|--------14---------12-14---------------------------------------------------------|
G|-----------10b--14---------------------------------------------------------------|
D|-9-/10-----------------------------------------14--16-14--14-10--14\9--10-9------|
A|---------------------------------------------------------------------------------|
E|---------------------------------------------------------------------------------|

e|-------------------------|
B|-------------------------|
G|-------------------------|
D|-\7-\6-\4-\1-/4-/6-\4----|
A|-------------------------|
E|-------------------------|

e|---------------------------------------------------------------------------|
B|---------------------------------------------------------------------------|
G|-4-4--------6-6-6--6-6--6-4---3-3-3--3-3--3-4--6--6-6--6-6--6-4---6-6--6---|
D|-6-6---6----6-6-6--6-6--6-6---4-4-4--4-4--4-4--6--6-6--6-6--6-6---6-6--6---|
A|-6-6---6-6-----------------------------------------------------------------|
E|-4---1-4-4-----------------------------------------------------------------|

e|-------------|
B|-------------|
G|-6-3-4-1-3-1-|
D|-------------|
A|-------------|
E|-------------|

e|--------------------------------------------------------------------7----------|
B|-------------4----------4-----------------4-----------4---4----7-9---9-9-------|
G|---4---4---6----6-4-4h6---------4---4---6-------4---4---6----8-----------------|
D|-6---6---6----------------6---6---6---6-------6---6----------------------------|
A|-------------------------------------------------------------------------------|
E|-------------------------------------------------------------------------------|

e|-9h10p9-7h9p7----------------------------------------------------------------|
B|-----------------7h9p7-------------------------------------------------------|
G|------------------------6h8p6-6/8-\4--6h8-6h8-6-8--8-9-8h9p8\6-8-6\4---------|
D|-----------------------------------------------------------------------------|
A|-----------------------------------------------------------------------------|
E|-----------------------------------------------------------------------------|

e|-----------------------------------------------------------------------------|
B|-----------------------------------------------------------------------------|
G|-6h8-6h8-6-8--9h10~~~-9-8h9p8\6-6/8----6h8-6h8-6-8---------6---5-------------|
D|--------------------------------------------------------6-6-6--------6-------|
A|-----------------------------------------------------------------------------|
E|-----------------------------------------------------------------------------|

e|-4------------------------------9b-7-9-/10-----------------------------------|
B|---7-4----------------------------------------9-10b-p9-\7-9-7----------------|
G|-------6-4---6-4---4-------6-------------------------------------8---6h8-----|
D|-----------6-----6---6-4-6---------------------------------------------------|
A|-----------------------------------------------------------------------------|
E|-----------------------------------------------------------------------------|

e|--------------------------------------------------------------14-12-10-9-----|
B|-----------------------------------------------------------------------------|
G|-6h8-6-8--9h10~~~-9-8h9p8\6-/8--6h8-6h8-6-8--------6--5----------------------|
D|------------------------------------------------6-6-6------6-----------------|
A|-----------------------------------------------------------------------------|
E|-----------------------------------------------------------------------------|

e|-6b-p4-\1-/4--|
B|--------------|
G|--------------|
D|--------------|
A|--------------|
E|--------------|

            
            
Suggest correction
Creating personal tab
Creating personal tab
You can edit any tab online and save it as your Personal.

You can edit, replace or remove any tab part or add personal notes – all changes will be seen only by you.

Personal tabs can be accessed anytime from any device, even offline.
Learn more »
Give kudos to tab author, rate the tab!
1 2 3 4 5
comments
print report bad tab
guest
You may want to rate the tab now too:
select rating
Wanna post a correction for this tab? Suggest correction