Oops, an error
Loading. Please wait.

Get Down Moses Bass Tab

850 views 3 this week
no commentswrite comment
1 2 3 4 5
accurate
x 1
add to favorites
launch autoscroll
font size
0
reset
guitar tuner
Tab Pro tools
  • play this tab
  • loop segment
  • change instrument
  • show fretboard
  • metronome
Autoscroll
slow
fast
+/-
esc
set tempo
stop
Contributor
Difficulty
novice
-------------------------------------------------------------------------------
                             Get Down Moses - Joe Strummer & The Mescaleros
-------------------------------------------------------------------------------
Tabbed by: Grant Harms
E-mail: rustednail@juno.com

Tuning:

G|--------------------------------------|
D|--------------------------------------|  12x
A|-0-0----0--3--0-------0-0----0--3--5--|
E|-----------------3--------------------|

G|---------------------------------------------------------------------------|
D|---------------------------------------------------------------------------|  4x
A|-0------0-3-0-3-5-7--7--7--7----5--5--5--5----3--0-------------------------|
E|----------------------------------------------------3--4--5----------------|

G|---------------------------------------------------------------------------|
D|---------------------3--2h3p3----------------------------------------------|  2x
A|-0--3--5--3----3--5------------5-------------------------------------------|
E|---------------------------------------------------------------------------|

G|---------------------------------------------------------------------------|
D|---------------------------------------------------------------------------|
A|-0-0----0--3--0-------0-0----0--3--5----0-0----0--3--0--3----0-0----0--3--5|
E|-----------------3---------------------------------------------------------|

G|-----------------------------------------------------------------2---------|
D|----------------------------------------7----6----5----4----3--------------|  2x
A|-0-0----0--3--0------0-0----0--3--5----------------------------------------|
E|-----------------3---------------------------------------------------------|

G|--------------------|
D|--------------------|  4x
A|-0-0----0--3--0-----|
E|-----------------3--|

G|--------------------------------------|
D|--------------------------------------|  8x
A|-0-0----0--3--0-------0-0----0--3--5--|
E|-----------------3--------------------|

G|---------------------------------------------------------------------------|
D|---------------------------------------------------------------------------|  4x
A|-0------0-3-0-3-5-7--7--7--7----5--5--5--5----3--0-------------------------|
E|----------------------------------------------------3--4--5----------------|

G|---------------------------------------------------------------------------|
D|---------------------3--2h3p3----------------------------------------------|  2x
A|-0--3--5--3----3--5------------5-------------------------------------------|
E|---------------------------------------------------------------------------|

G|---------------------------------------------------------------------------|
D|---------------------------------------------------------------------------|
A|-0-0----0--3--0-------0-0----0--3--5----0-0----0--3--0--3----0-0----0--3--5|
E|-----------------3---------------------------------------------------------|

G|-----------------------------------------------------------------2---------|
D|----------------------------------------7----6----5----4----3--------------|  2x
A|-0-0----0--3--0------0-0----0--3--5----------------------------------------|
E|-----------------3---------------------------------------------------------|

G|------|
D|------| 8 Measure rest
A|-0-0--|
E|------|

G|---------------------------------------------------------------------------|
D|---------------------------------------------------------------------------|
A|-0-0----0--3--0-------0-0----0--3--5----0-0----0--3--0--3----0-0----0--3--5|
E|-----------------3---------------------------------------------------------|

G|-----------------------------------------------------------------2---------|
D|----------------------------------------7----6----5----4----3--------------|  4x
A|-0-0----0--3--0------0-0----0--3--5----------------------------------------|
E|-----------------3---------------------------------------------------------|

G|-----------|
D|-----------|
A|-0-0-------|
E|-----------|


| /  slide up
| \  slide down
| h  hammer-on
| p  pull-off
| ~  vibrato
| +  harmonic
| x  Mute note
===============================================================================
comments
We did not receive enough feedback on this tab! Please rate:
print report bad tab
1 2 3 4 5
I want to post or [tab]
guest
You may want to rate the tab now too:
select rating
Please do not post tabs as comments. Select "correction" instead!