Oops, an error
Loading. Please wait.

Show Me bass

by Joe Tex
2,803 views 1 this week
no commentswrite comment
1 2 3 4 5
x 3
add to favorites
×
Save as Personal and add changes to this tab that will be seen only by you. Learn more ›
×
You can save this tab as Personal to edit and correct it or add notes. All changes will be seen only by you. Learn more »
launch autoscroll
font size
0
reset
guitar tuner
edit
Autoscroll
slow
fast
+/-
esc
set tempo
stop
Author
Difficulty
Show Me

Original Artist Joe Tex

Tabbed by bass50611.  This is another great and very fast bass driven song  
from the Atlantic Record Label.  E-mail me with your comments at goldenoldie.benson@sky.com

Intro:
G----------------------------------------------------------------|
D-----------5-7-5-----5--------------------------5-7-5-----------|
A--7---5-7-7------7-5---77------------7---5-7-7-------7-5---777--|
E----7----------------------------------7-----------------7------|

Verse:
G---------------------------------------------------------------|
D---------------56777---56777------------------56777---56777----|
A--777--5677-77-------7--------56777---5677-77-------7----------|
E-----7-----7-----------------7------7-----7--------------------|

Chorus: (Play this x4)
G-----------------------------------------|
D-----------------------------------------|
A---01-222222-22222222-1h222222-22222222--|
E-----------------------------------------|

(Then Play This)
G------------------|
D--2-0-------------|
A------4-2--2------|
E---------4---4-0--|

Bridge:
G--------------------------------------------------------------------|
D---------------789---7-9--789--7-9--79777--56777--5-7-5-5-5-5-2-----|
A--777--5677-77-----9-----9----9----9------7------7------------------|
E-----7-----7-----------------------------------------------------0--|

(Play this x4 before going back into verse)
G-----------------|
D-----------------|
A--7---5-7---5-7--|
E----7-----7------|

Repeat Verse, Chorus and Bridge Twice More:

            
            
Suggest correction
Creating personal tab
Creating personal tab
You can edit any tab online and save it as your Personal.

You can edit, replace or remove any tab part or add personal notes – all changes will be seen only by you.

Personal tabs can be accessed anytime from any device, even offline.
Learn more »
Give kudos to tab author, rate the tab!
1 2 3 4 5
comments
print report bad tab
guest
You may want to rate the tab now too:
select rating
Wanna post a correction for this tab? Suggest correction