Oops, an error
Loading. Please wait.

La Gloria De Chile Tab

21 views 3 this week
no commentswrite comment
1 2 3 4 5
3 more votes to show rating
add to favorites
launch autoscroll
font size
0
reset
how to read this tab
guitar tuner
×
Best way to learn
"La Gloria De Chile"
Autoscroll
slow
fast
+/-
esc
set tempo
stop
INTRODUCCION

|---------------------------------------------
|---------------------------------------------
|---------------------------------------------
|------------------5-7------8-7-7-5----7-5----
|----5---5-7-8-7-8-----8--7----------7-----8--
|--5---5--------------------------------------


|-----10-10-||----10-13-12-10-10--9-10-10--||
|--10-------||-10--------------------------||
|-----------||-----------------------------||X 3
|-----------||-----------------------------||
|-----------||-----------------------------||
|-----------||-----------------------------||
Suggest correction
Give kudos to tab author, rate the tab!
1 2 3 4 5
comments
print report bad tab
guest
You may want to rate the tab now too:
select rating
Wanna post a correction for this tab? Suggest correction