Oops, an error
Loading. Please wait.

Ya No Tab

28 views 1 this week
no commentswrite comment
1 2 3 4 5
3 more votes to show rating
add to favorites
launch autoscroll
font size
0
reset
how to read this tab
guitar tuner
Autoscroll
slow
fast
+/-
esc
set tempo
stop
Help us to improve Ultimate-Guitar.com Take our survey!
×
queria añadir un cambio en los acordes
G  (x-x-12-12-12-x)            D      (x-x-12-11-10-10)
Bm  (x-x-x-11-12-10)         F#    (x-x-x-11-11-9) A     (x-x-x-9-10-9)        Bm II   (x-x-x-7-7-7)
Em  (x-x-14-12-12-x)


en vez de usar el 'Em' en el coro 2 se se usa el acorde 'G'
y tambien para el guitar fill despues del solo.

tambien en el intro hay una parte que tengo que corregir

||---17---16---15-14----15------------------12-----14-----15--------------12-----14----15-------||
||--------------------------------17~----12-----12-----12------12------12-----12----12-----12---||
||----------------------------------------------------------------------------------------------||
||----------------------------------------------------------------------------------------------||
||----------------------------------------------------------------------------------------------||
||----------------------------------------------------------------------------------------------||

Intro:
||-------------9--10----10------10h12-12-12-12--9-----10h12-12-12-12--||
||---10--12---------12-----12---------------------12------------------||
||--------------------------------------------------------------------||
||--------------------------------------------------------------------||
||--------------------------------------------------------------------||
||--------------------------------------------------------------------||

                                         Dos veces
||-9-------10-10-10-10-10----------------||
||---10-------------------------12--10---||
||---------------------------------------||
||---------------------------------------||
||---------------------------------------||
||---------------------------------------||

||---17---16---14-14---16---------12----14---15---------12--14---15----||
||-------------------------17~--12----12---12---12----12--12---12---12-||
||---------------------------------------------------------------------||
||---------------------------------------------------------------------||
||---------------------------------------------------------------------||
||---------------------------------------------------------------------||


||--------10------12----14--------------10------12-----14--||
||----10-----10-----10-----10-----10------10------10------||
||---------------------------------------------------------------||
||---------------------------------------------------------------||
||---------------------------------------------------------------||
||---------------------------------------------------------------||

Em  (x-x-14-12-12)       D      (x-x-12-11-10)
Bm  (x-x-x-11-12-10)     F#m    (x-x-x-11-10-9)
A   (x-x-x-9-10-9)      Bm II   (x-x-x-7-7-7)


Em                       D            
Tu te fuistes de ideal y yo ciegado en mi soñar.
Em                     D                         
No pense y pude ver y cai en tu falso proceder.
Em                             D  
Y yo ciegado en mi soñar, me perdi queriendote ayudar.

Coro
F#m                Bm                    
Pero no vuelvo contigo (Ya no
Suggest correction
Give kudos to tab author, rate the tab!
1 2 3 4 5
comments
print report bad tab
guest
You may want to rate the tab now too:
select rating
Wanna post a correction for this tab? Suggest correction