Oops, an error
Loading. Please wait.

A Life Of Illusion chords

version 1
version 1

Whole song

30,092 views 72 this week
6 commentsread comments
1 2 3 4 5
x 25
add to favorites
×
Save as Personal and add changes to this tab that will be seen only by you. Learn more ›
×
You can save this tab as Personal to edit and correct it or add notes. All changes will be seen only by you. Learn more »
launch autoscroll
font size
0
reset
transpose
0
reset
display chords
guitar tuner
edit
Autoscroll
slow
fast
+/-
esc
set tempo
stop
Author
Unregistered
Strumming
There is no strumming pattern for this song yet. and get +5 IQ
A Life Of Illusion
Joe Walsh
From the Album-"There Goes The Neighborhood"
1981
Written by Joe Walsh


[Intro/Main] Riff


E-----------------------------------------------|
B-------------------------------------3---1---5-|
G----------------------2------5---4-------------|
D----------2---5---2------5---------------------|
A--3---5----------------------------------------|
E-----------------------------------------------|

                                      C
E-------------------------------------0---------|
B-----------------------------3--1----1---------|
G-----------------2-----5--4----------0---------|
D--------2--5--2-----5----------------2---------|
A--3--5-------------------------------3---------|
E-------------------------------------0---------|


     F
Sometimes I can't help but thinkin' that I'm
                    C
Living a life of illusion
    F
And oh why can't we let it be and see through
                             C
The hole in this wall of confusion
        G
I just can't help but feeling
     F                  C
I'm living a life of illusion


(Intro/Main Riff)

 F
Pow,right between the eyes
                                    C
Oh how nature loves her little surprises
 F
Wow,it all seems so logical now
                                           C
It's just one of her better disguises
        G           
And it comes with no warning
 F                                     C
Nature loves her little surprises
G     F                C
         Continual crisis


[Solo]
G F F G  G F F G  F F C

(Intro/Main Riff)


 F
Hey don't you know it's a waste of your day
                                  C
Caught up in endless solutions
                     F
That have no meaning just another hunch
                        C       G
Based upon jumping conclusions
G       F                               C     
         Caught up in endless solutions
G       F                                         C    
         Backed up against a wall of confusion

G       F                  C
         Living a life of illusion

(Fade)
G F C   G F C  G F C

            
            
Suggest correction
Creating personal tab
Creating personal tab
You can edit any tab online and save it as your Personal.

You can edit, replace or remove any tab part or add personal notes – all changes will be seen only by you.

Personal tabs can be accessed anytime from any device, even offline.
Learn more »
comments
print report bad tab
6 comments total. Showing first comments.
0 reply
ZedLep19 57 Jan 03, 2007 11:28 AM

pretty good tab ur just in a different key

0 reply
WithRoyalBlood 10 Jun 11, 2008 10:53 AM

I think a capo on 3rd fret does nicely if you're tuned down half a step.

+2 reply
twistedLV 10 Oct 28, 2008 07:26 PM

Capo on 2nd, standard tuning

E-------------------------------------0---------
B-----------------------1--0--3--1----1---------
G-----------0-----2--0----------------0---------
D-----0--2-----2----------------------2----------
A--3----------------------------------3---------
E-------------------------------------0---------

guest
Wanna post a correction for this tab? Suggest correction