Oops, an error
Loading. Please wait.

Falling Down chords

127 views 6 this week
no commentswrite comment
1 2 3 4 5
3 more votes to show rating
add to favorites
×
Save as Personal and add changes to this tab that will be seen only by you. Learn more ›
×
You can save this tab as Personal to edit and correct it or add notes. All changes will be seen only by you. Learn more »
launch autoscroll
font size
0
reset
transpose
0
reset
simplify chords
display chords
guitar tuner
edit
Autoscroll
slow
fast
+/-
esc
set tempo
stop
Author
About this tab version
Probably not completely accurate but it's good enough considering there is no tab to these song anywhere. Was this info helpful? Yes No
Strumming
There is no strumming pattern for this song yet. and get +5 IQ
The song seems to be in an open tuning but this alternative version in standard tuning seems to work just as 
fine.

[Intro]
Guitar 1:
   C     |G        |F           |C       [RIFF 1]|C        |Bm         |Am
e|--0--0---3--3--3---1--1--1--1---0--|   |------------------------------------------------|
B|--1--1---3--3--3---1--1--1--1---1--|   |------------------------------------------------|
G|--0--0---0--0--0---2--2--2--2---0--|   |-----------0------------0----1------------------|
D|--2--2---0--0--0---3--3--3--3---2--|   |---------2------------0------2------------------|
A|--3--3---2--2--2---3--3--3--3---3--|   |-------3----------0H2--------2------------------| 
E|--X--X---3--3--3---1--1--1--1---X--|   |------------------------------------------------|

   C     |G        |F           |C       [RIFF 2]|C        |Bm         |C
e|--0--0---3--3--3---1--1--1--1---0--|   |-----------------------------0----------------|
B|--1--1---3--3--3---1--1--1--1---1--|   |-----------------------------1----------------|
G|--0--0---0--0--0---2--2--2--2---0--|   |-----------0------------0----0----------------|
D|--2--2---0--0--0---3--3--3--3---2--|   |---------2------------0------2----------------|
A|--3--3---2--2--2---3--3--3--3---3--|   |-------3----------0H2--------3----------------| 
E|--X--X---3--3--3---1--1--1--1---X--|   |----------------------------------------------|

Guitar 2:
   |C       |G           |F         |C          |C         |G        |F       |C
e|-------8-----------------------------------| |----------------------------8-------------|
B|-----8---8------------------------3\5------| |-------------------------8-----8----------|
G|--b10------10--5-----2--5--2--5------------| |--9---------7------7--9-------------------|
D|------------------5------------------------| |-----7--10-----10-------------------------|
A|-------------------------------------------| |------------------------------------------|
E|-------------------------------------------| |------------------------------------------|

*In between guitar 2 parts Riff 1 takes place, meanwhile guitar 2 remains silent. it only plays during the 
intro chord sequence.

-------------------------------------------------------------------------------------------------------------

F/C       Fm          [Riff 2]
Making no deposit, no return
F/C             Fm                 [Riff 1]
Making the same mistakes, we never learn
G                        Am
All of the pain in those faces
G                  Am
Trying not to show concern

Am        F/C
Spent and broken
Am                     G               C
Like a worn out subway door in the city

*ReIntro without guitar 2 parts

F/C            Fm              [Riff 2]
Hanging in the closet, wait in line
F/C            Fm                    [Riff 1]
When you go by the laws, you pay the fine
G                         Am
I'm burning the candle at both ends
G                           Am
Twice the light in half the time

Am      F/C
Down to crawlin'
Am      G
Feel like I'm falling
              Am   G               F/C          C
Oh & yes, the rain doesn't have to hurry in the city;
Am    G            F
Falls sadly to the ground
Am   G               F/C          A
Rain doesn't have to hurry in the city
Am          G       F      Am    D    Am   D   Am   D 
Only way to fall is down
E7*           
Falling down

F    C    D    X4

                 F/C          Fm                 [Riff 2]
But still you're running in a race that can't be won
       F/C              Fm                  [Riff 1]
Aiming hard to fill the spaces when they're gone
         G             Am                   
Worn out shoes with no laces
G                    Am
Getting too loose to stay on

Am      F/C
Back to crawling
Am            G
Feel like I'm falling
             Am   G                 F/C         C
Oh & yes the rain takes its time to fall in the city
Am    G            F
Falls sadly to the ground
Am   G                F/C        C
Rain kinda of says it all in the city
Am          G       F      Am    D    Am    D   Am    D
Only way to fall is down

E7*          F    C    D (Repeat Until Fade)
Falling down

F/C: X33210
E7*: XX0434
Suggest correction
Creating personal tab
Creating personal tab
You can edit any tab online and save it as your Personal.

You can edit, replace or remove any tab part or add personal notes – all changes will be seen only by you.

Personal tabs can be accessed anytime from any device, even offline.
Learn more »
Give kudos to tab author, rate the tab!
1 2 3 4 5
comments
print report bad tab
guest
You may want to rate the tab now too:
select rating
Wanna post a correction for this tab? Suggest correction