Oops, an error
Loading. Please wait.

Funk 49 tab

version 1
version 1

Whole song

Interactive

105,122 views 102 this week
3 commentsread comments
1 2 3 4 5
x 27
add to favorites
×
Save as Personal and add changes to this tab that will be seen only by you. Learn more ›
×
You can save this tab as Personal to edit and correct it or add notes. All changes will be seen only by you. Learn more »
launch autoscroll
font size
0
reset
how to read this tab
guitar tuner
edit
Autoscroll
slow
fast
+/-
esc
set tempo
stop
Author
Unregistered
[Intro]

e|---------5----------X---X---X-------------------------------| 
B|---6b(8)--(8)br6--5---8---7---5-----------------------------| 
G|-------------------------------7--7p5p0---------------------| 
D|----------------------------------------5-------------------| 
A|------------------------------------------------------------| 
E|------------------------------------------------------------| 

e|-------------------------------------------------------| 
B|-5------7--5----7h8--7-------7--5----------------------| 
G|-5h6----7--5h6--7----7-------7--5h6--------------------| 
D|-5------7--5----7----7-------7--5----------------------| 
A|-------------------------------------------------------| 
E|-------------------------------------------------------| 


[Main riff]

(Play a bunch of times) 

e|------------------------------------------------------------------| 
B|-5---X-X-X-X--7--5---x-x-x-x--7h8--7---x-x-x-x--7--5-----x-x-x-x-x| 
G|-5h6-x-x-x-x--7--5h6-x-x-x-x--7----7---x-x-x-x--7--5h6---x-x-x-x-x| 
D|-5---X-X-X-X--7--5---X-X-X-X--7----7---X-X-X-X--7--5-----X-X-X-X-X| 
A|-----X-X-X-X---------X-X-X-X-----------X-X-X-X-----------X-X-X-X-X| 
E|------------------------------------------------------------------| 


[First break]

e|----------------------X--X---5------------------------X--X--X--X--X-| 
B|----------------------X--X---5------------------------X--X--X--X--X-| 
G|----------------------X--X---6------------------------X--X--X--X--X-| x2
D|-7--5-----------------X--X---7---7--5-----------------X--X--X--X--X-|  
A|-------7--5-----------X--X---7---------7--5-----------X--X--X--X--X-| 
E|-------------8--3--5--X--X---5---------------8--3--5--X--X--X--X--X-| 


e|----------------------X--X---7------------------------X--X--X--X--X-| 
B|----------------------X--X---7------------------------X--X--X--X--X-| 
G|----------------------X--X---8------------------------X--X--X--X--X-| 
D|-9--7-----------------X--X---9---9--7-----------------X--X--X--X--X-| 
A|-------9--7-----------X--X---9---------9--7-----------X--X--X--X--X-| 
E|-------------10-5--7--X--X---7---------------10-5--7--X--X--X--X--X-| 

e|----------------------X--X---7--------------------------------| 
B|----------------------X--X---7-------------------------7------| Back to 
G|----------------------X--X---8-------------------------7------| Main riff 
D|-9--7-----------------X--X---9---9--7------------------7------| 
A|-------9--7-----------X--X---9---------9--7-------------------| 
E|-------------10-5--7--X--X---7---------------10-5--7----------|



************************************

| x  Dead note
| h  Hammer-on
| p  Pull-off

************************************

            
            
Suggest correction
Creating personal tab
Creating personal tab
You can edit any tab online and save it as your Personal.

You can edit, replace or remove any tab part or add personal notes – all changes will be seen only by you.

Personal tabs can be accessed anytime from any device, even offline.
Learn more »
comments
print report bad tab
3 comments total.
+1 reply
stratmanjay3000 20 Dec 25, 2005 03:08 AM

good tab! :)

0 reply
rgrippo 10 Apr 18, 2015 11:51 AM

Tab is fantastic except Joe Walsh uses the open A as a "drone" string in the main riff.

Main riff:
e -----------------------------------------------------------------------
b -5-----X-X-X-X--7--5-----X-X-X-X--7-H-8--7---X-X-X-X--7--5----X-X-X-X-X
g -5-H-6-X-X-X-X--7--5-H-6-X-X-X-X--7------7---X-X-X-X--7--5-H-6X-X-X-X-X
d -5-----X-X-X-X--7--5-----X-X-X-X--7------7---X-X-X-X--7--5----X-X-X-X-X
a -0-----X-X-X-X-----0-----X-X-X-X--0------0---X-X-X-X-----0----X-X-X-X-X
E -----------------------------------------------------------------------

-1 reply
philblaich 10 Mar 25, 2016 03:42 PM

Is stupid and it sucks is stupid and it sucks is stupid and it sucks

guest
Wanna post a correction for this tab? Suggest correction