Oops, an error
Loading. Please wait.

Lifes Been Good tab

version 4
version 4

Whole song

Interactive

523 views 6 this week
no commentswrite comment
1 2 3 4 5
1 last vote to show rating
add to favorites
×
Save as Personal and add changes to this tab that will be seen only by you. Learn more ›
×
You can save this tab as Personal to edit and correct it or add notes. All changes will be seen only by you. Learn more »
launch autoscroll
font size
0
reset
how to read this tab
guitar tuner
edit
Autoscroll
slow
fast
+/-
esc
set tempo
stop
Author
Difficulty
About this tab version
This tab is a version that can be played with a single guitar. The verses should be played with muted notes and can be played alternatively with F, C, G then C, in place of the single notes. The timing can be tricky to get used to, but, playing along with drum and bass parts help to get it right. Joe uses a slide for this song but, this tab allows a player to play without it. Was this info helpful? Yes No
[Intro]
e|----------------------------------|------------------------------2-2-2--------|
B|------------------------------2-2-|---------------------------2--3-3-3-2-2-2--|
G|--------------2------------2--2-2-|--------------2------------2--2-2-2-2-2-2--|
D|-----------------------2------2-2-|-----------------------2---0--------2-2-2--|
A|--2br--0--2/4---0--2/4---4--------|--2b-r-0--2/4---0--2/4---4-----------------|
E|----------------------------------|-------------------------------------------|

e|----------------------------------|----------------------2--------------------|
B|----------------------------2-2---|----------------------3--7-7-7--2-2-2------|
G|--------------------------2-2-2---|----------------------2--7-7-7--2-2-2------|
D|--------2-------------2-----2-2---|-----2------------2---0--7-7-7--2-2-2------|
A|--0-2/4---2br-0-0-2/4---4---------|-2/4--2br-0-0-2/4---4----5-5-5-------------|
E|----------------------------------|-------------------------------------------|

e|------------------------------5-5-|-------------------------------------------|
B|------------------------------5-5-|--------------------------7--7-7-7-2-2-2---|
G|--2-2---2-2---2-2-2---2-2---2-2-2-|--------------------------7--7-7-7-2-2-2---|
D|--2-2---2-2---2-2-2---2-2---2-----|--------2-------------2---7--7-7-7-2-2-2---|
A|--0-3br-0-3br-0-0-3br-0-3br-0-----|--0-2/4---2br-0-0-2/4---4-5--5-5-5---------|
E|----------------------------------|-------------------------------------------|

e|----------------------------------|-------------------------------------------|
B|------------------------------7-2-|------------------------5/7--7-7-7-2-2-2---|
G|--2-2---2-2---2-2-2---2-2---2-7-2-|--2-2---2-2---2-2-2---2-5/7--7-7-7-2-2-2---|
D|--2-2---2-2---2-2-2---2-2---2-7-2-|--2-2---2-2---2-2-2---2-5/7--7-7-7-2-2-2---|
A|--0-3br-0-3br-0-0-3br-0-3br-0-5---|--0-3br-0-3br-0-0-3br-0-3/5--5-5-5---------|
E|----------------------------------|-------------------------------------------|

e|-------------------------------------------------------|----------------------|
B|------10-10-10-8--8--8--6-6-----10-10-10-8--8--8--6-6--|--5-5-5-3-3-3-1-1-----|
G|------10-10-10-9--9--9--5-5-----10-10-10-9--9--9--5-5--|--5-5-5-4-4-4-2-2-----|
D|------10-10-10-10-10-10-7-7-----10-10-10-10-10-10-7-7--|--7-7-7-5-5-5-2-2-----|
A|-------------------------------------------------------|----------------------|
E|--0-1-----------------------0-1------------------------|----------------------|

e|-------------------|----------------------------------------------------------|
B|--5-5-5-3-3-3-1-1--|-----10-10-10-8--8--8--6-6----10-10-10-8--8--8--6-6-------|
G|--5-5-5-4-4-4-2-2--|-----10-10-10-9--9--9--5-5----10-10-10-9--9--9--5-5-------|
D|--7-7-7-5-5-5-2-2--|-----10-10-10-10-10-10-7-7----10-10-10-10-10-10-7-7-------|
A|-------------------|----------------------------------------------------------|
E|-------------------|-0-1-----------------------0-1----------------------------|

e|------------------------------------------------------------------------------|
B|--5-5-5-3-3-3-1-1-0-1N--------------------------------------------------------|
G|--5-5-5-4-4-4-2-2-0-2N--------------------------------------------------------|
D|--7-7-7-5-5-5-2-2-0-2N--------------------------------------------------------|
A|------------------------------------------------------------------------------|
E|------------------------------------------------------------------------------|

 [Verse 1]
           I have a mansion,         forget the price
e|--------------------------------|---------------------------------------------|
B|--------------------------------|---------------------------------------------|
G|--------------------------------|---------------------------------------------|
D|----0-2-3-x-x-x-x--3-2-x-x-x-x--|--2-0-x-x-x-x--0-----------------------------|
A|--3-----------------------------|-----------------3---------------------------|
E|--------------------------------|---------------------------------------------|
           Ain't never been there,   they tell me it's nice
e|--------------------------------|---------------------------------------------|
B|--------------------------------|---------------------------------------------|
G|--------------------------------|---------------------------------------------|
D|------3--x-x-x-x---3-2--x-x-x-x-|---2-0--x-x-x-x---0--------------------------|
A|--------------------------------|----------------------3----------------------|
E|--------------------------------|---------------------------------------------|
           I live in hotels,           tear out the walls
e|--------------------------------|---------------------------------------------|
B|--------------------------------|---------------------------------------------|
G|--------------------------------|---------------------------------------------|
D|------3--x-x-x-x---3-2--x-x-x-x-|---2-0--x-x-x-x---0--------------------------|
A|--------------------------------|-----------------------3---------------------|
E|--------------------------------|---------------------------------------------|
           I have accountants,        pay  for it  all
e|--------------------------------|---------------------------------------------|
B|--------------------------------|---------------------------------------------|
G|--------------------------------|---------------------------------------------|
D|------3--x-x-x-x---3-2--x-x-x-x-|---2-0--x-x-x-x---0--------------------------|
A|--------------------------------|-----------------------3---------------------|
E|--------------------------------|---------------------------------------------|
          They say I'm crazy but I have a good time
e|----------3-----3------------------|--------0--------0---------0---------0----|
B|----------3-----3------------------|--------1--------0---------1---------0----|
G|-----------------------------------|--------0--------0---------0---------0----|
D|-------------------2-3-2-3-2-3/5---|-----2--------0---------2---------0-------|
A|--3-2-0----------------------------|---3------------------3-------------------|
E|---------3----1--------------------|------------3-------------------3---------|
            I'm just lookin' for clues at the scene of the crime
e|--------------------------3---------3-----------------------------------------|
B|--------------------------3---------3-----------------------------------------|
G|------------------------------------------------------------------------------|
D|-------------------------------------------2-3-2-3-2-3/5----------------------|
A|------------------------------------------------------------------------------|
E|-----------------------3-------1----------------------------------------------|
               Life's been  good  to   me   so   far
e|------------------------------------------------------------------------------|
B|--------------------------------1--------0-----2------------------------------|
G|------------------------------0--------0-------2------------------------------|
D|----------------------------2--------0---------2------------------------------|
A|--------------------------3--------2-----------0 -----------------------------|
E|------------------------------------------------------------------------------|

 [Verse 2]
             My Maserati             does 185
e|--------------------------------|---------------------------------------------|
B|--------------------------------|---------------------------------------------|
G|--------------------------------|---------------------------------------------|
D|----0-2-3-x-x-x-x--3-2-x-x-x-x--|--2-0-x-x-x-x--0-----------------------------|
A|--3-----------------------------|-=----------------3--------------------------|
E|--------------------------------|---------------------------------------------|
             I lost my license,          now I don't drive
e|-----------------------------------|------------------------------------------|
B|-----------------------------------|------------------------------------------|
G|-----------------------------------|------------------------------------------|
D|--------3--x-x-x-x---3-2--x-x-x-x--|---2-0--x-x-x-x---0-----------------------|
A|-----------------------------------|---------------------3--------------------|
E|-----------------------------------|------------------------------------------|
             I have a limo,              ride in the back 
e|-----------------------------------|------------------------------------------|
B|-----------------------------------|------------------------------------------|
G|-----------------------------------|------------------------------------------|
D|--------3--x-x-x-x---3-2--x-x-x-x--|---2-0--x-x-x-x---0-----------------------|
A|-----------------------------------|---------------------3--------------------|
E|-----------------------------------|------------------------------------------|
            I lock the doors,            in case i'm attacked
e|-----------------------------------|------------------------------------------|
B|-----------------------------------|------------------------------------------|
G|-----------------------------------|------------------------------------------|
D|--------3--x-x-x-x---3-2--x-x-x-x--|---2-0--x-x-x-x---0-----------------------|
A|-----------------------------------|----------------------3-------------------|
E|-----------------------------------|------------------------------------------|
            I'm makin' records,          my fans they can't wait
e|-----------------------------------|------------------------------------------|
B|-----------------------------------|------------------------------------------|
G|-----------------------------------|------------------------------------------|
D|--------3--x-x-x-x---3-2--x-x-x-x--|---2-0--x-x-x-x---0-----------------------|
A|-----------------------------------|----------------------3-------------------|
E|-----------------------------------|------------------------------------------|
            they write me letters,       and tell me I'm great
e|-----------------------------------|------------------------------------------|
B|-----------------------------------|------------------------------------------|
G|-----------------------------------|------------------------------------------|
D|--------3--x-x-x-x---3-2--x-x-x-x--|---2-0--x-x-x-x---0-----------------------|
A|-----------------------------------|----------------------3-------------------|
E|-----------------------------------|------------------------------------------|
             So I got me an office,      gold records on the wall
e|-----------------------------------|------------------------------------------|
B|-----------------------------------|------------------------------------------|
G|-----------------------------------|------------------------------------------|
D|--------3--x-x-x-x---3-2--x-x-x-x--|---2-0--x-x-x-x---0-----------------------|
A|-----------------------------------|---------------------3--------------------|
E|-----------------------------------|------------------------------------------|
            just leave a message,         maybe I'll call
e|-----------------------------------|------------------------------------------|
B|-----------------------------------|------------------------------------------|
G|-----------------------------------|------------------------------------------|
D|--------3--x-x-x-x---3-2--x-x-x-x--|---2-0--x-x-x-x---0-----------------------|
A|-----------------------------------|----------------------3-------------------|
E|-----------------------------------|------------------------------------------|
          Lucky I'm the same after all I've through (He's Cool!!)
e|----------3-----3------------------|--------0--------0---------0---------0----|
B|----------3-----3------------------|--------1--------0---------1---------0----|
G|-----------------------------------|--------0--------0---------0---------0----|
D|-------------------2-3-2-3-2-3/5---|-----2--------0---------2---------0-------|
A|--3-2-0----------------------------|---3------------------3-------------------|
E|---------3----1--------------------|------------3-------------------3---------|
                 I can't complain but sometimes i still do
e|--------------------------3---------3-----------------------------------------|
B|--------------------------3---------3-----------------------------------------|
G|------------------------------------------------------------------------------|
D|-------------------------------------------2-3-2-3-2-3/5----------------------|
A|------------------------------------------------------------------------------|
E|-----------------------3-------1----------------------------------------------|
                Life's been  good  to   me   so   far
e|------------------------------------------------------------------------------|
B|--------------------------------1--------0-----2------------------------------|
G|------------------------------0--------0-------2------------------------------|
D|----------------------------2--------0---------2------------------------------|
A|--------------------------3--------2-----------0 -----------------------------|
E|------------------------------------------------------------------------------|

[Solo]
e|-----------14---------|-------14-----------|----------------------------------|
B|--------17------------|----------17----14--|----14-----14---------------------|
G|--16pb--------16b-14--|-16pb--------16-----|-16b----16b----16b--14------------|
D|----------------------|--------------------|----------------------------------|
A|----------------------|--------------------|----------------------------------|
E|----------------------|--------------------|----------------------------------|

e|-----------14--------|------12----------|------14----------|-17---------------|
B|--------17-----------|---------15----12-|---------17----14-|-----17-19--------|
G|--16pb--------16b-14-|-14pb-------14----|-16pb-------16----|-----------16b-14-|
D|---------------------|------------------|------------------|------------------|
A|---------------------|------------------|------------------|------------------|
E|---------------------|------------------|------------------|------------------|

e|-------------------------------|----------14--------|------14-----------------|
B|------14-----14-----14---------|-------17-----------|---------17----14--------|
G|--16b----16b----16b----16b--14-|-16pb--------16b-14-|-16pb-------16-----------|
D|-------------------------------|--------------------|-------------------------|
A|-------------------------------|--------------------|-------------------------|
E|-------------------------------|--------------------|-------------------------|

e|--17------------------------------|----------12------|------------------------|
B|-----19-17----17-----17-19--------|----12-15----14b--|-----14-----14-----14---|
G|-----------18----16b-------16b-14-|-14---------------|-16b----16b----16b------|
D|----------------------------------|------------------|------------------------|
A|----------------------------------|------------------|------------------------|
E|----------------------------------|------------------|------------------------|

e|------------|---21-20-21-20-21-20-19-17--|--21pr-17---------------------------|
B|------------|----------------------------|----------17-15-14------------------|
G|--16b----14-|----------------------------|-------------------------14-14------|
D|------16----|----------------------------|-------------------14/16------------|
A|------------|----------------------------|------------------------------------|
E|------------|----------------------------|------------------------------------|

[Outro]
e|-----------------------------------|-----------------------------2-2-2--------|
B|------------------------------2-2--|--------------------------2--3-3-3-2-2-2--|
G|--------------2------------2--2-2--|-------------2------------2--2-2-2-2-2-2--|
D|-----------------------2------2-2--|----------------------2---0--------2-2-2--|
A|--2br--0--2/4---0--2/4---4---------|-2b-r-0--2/4---0--2/4---4-----------------|
E|-----------------------------------|------------------------------------------|

e|---------------------------------|----------------------2---------------------|
B|----------------------------2-2--|----------------------3--7-7-7--2-2-2-------|
G|--------------------------2-2-2--|----------------------2--7-7-7--2-2-2-------|
D|--------2-------------2-----2-2--|-----2------------2---0--7-7-7--2-2-2-------|
A|--0-2/4---2br-0-0-2/4---4--------|-2/4--2br-0-0-2/4---4----5-5-5--------------|
E|---------------------------------|--------------------------------------------|

e|------------------------------5-5--|------------------------------------------|
B|------------------------------5-5--|-------------------------7--7-7-7-2-2-2---|
G|--2-2---2-2---2-2-2---2-2---2-2-2--|-------------------------7--7-7-7-2-2-2---|
D|--2-2---2-2---2-2-2---2-2---2------|-------2-------------2---7--7-7-7-2-2-2---|
A|--0-3br-0-3br-0-0-3br-0-3br-0------|-0-2/4---2br-0-0-2/4---4-5--5-5-5---------|
E|-----------------------------------|------------------------------------------|

e|-----------------------------------|------------------------------------------|
B|------------------------------7-2--|-----------------------5/7--7-7-7-2-2-2---|
G|--2-2---2-2---2-2-2---2-2---2-7-2--|-2-2---2-2---2-2-2---2-5/7--7-7-7-2-2-2---|
D|--2-2---2-2---2-2-2---2-2---2-7-2--|-2-2---2-2---2-2-2---2-5/7--7-7-7-2-2-2---|
A|--0-3br-0-3br-0-0-3br-0-3br-0-5----|-0-3br-0-3br-0-0-3br-0-3/5--5-5-5---------|
E|-----------------------------------|------------------------------------------|

e|------------------------------------------------------|-----------------------|
B|------10-10-10-8--8--8--6-6----10-10-10-8--8--8--6-6--|--5-5-5-3-3-3-1-1------|
G|------10-10-10-9--9--9--5-5----10-10-10-9--9--9--5-5--|--5-5-5-4-4-4-2-2------|
D|------10-10-10-10-10-10-7-7----10-10-10-10-10-10-7-7--|--7-7-7-5-5-5-2-2------|
A|------------------------------------------------------|-----------------------|
E|--0-1-----------------------0-1-----------------------|-----------------------|

e|-------------------|----------------------------------------------------------|
B|--5-5-5-3-3-3-1-1--|-----10-10-10-8--8--8--6-6----10-10-10-8--8--8--6-6-------|
G|--5-5-5-4-4-4-2-2--|-----10-10-10-9--9--9--5-5----10-10-10-9--9--9--5-5-------|
D|--7-7-7-5-5-5-2-2--|-----10-10-10-10-10-10-7-7----10-10-10-10-10-10-7-7-------|
A|-------------------|----------------------------------------------------------|
E|-------------------|-0-1-----------------------0-1----------------------------|

e|------------------------------------------------------------------------------|
B|--5-5-5-3-3-3-1-1-0-1N--------------------------------------------------------|
G|--5-5-5-4-4-4-2-2-0-2N--------------------------------------------------------|
D|--7-7-7-5-5-5-2-2-0-2N--------------------------------------------------------|
A|------------------------------------------------------------------------------|
E|------------------------------------------------------------------------------|

[Verse 3]
           I go to parties,          sometimes until four
e|--------------------------------|---------------------------------------------|
B|--------------------------------|---------------------------------------------|
G|--------------------------------|---------------------------------------------|
D|----0-2-3-x-x-x-x--3-2-x-x-x-x--|--2-0-x-x-x-x--0-----------------------------|
A|--3-----------------------------|-------------------3-------------------------|
E|--------------------------------|---------------------------------------------|
              It's hard to leave,       when you can't find the door
e|-----------------------------------|------------------------------------------|
B|-----------------------------------|------------------------------------------|
G|-----------------------------------|------------------------------------------|
D|--------3--x-x-x-x---3-2--x-x-x-x--|---2-0--x-x-x-x---0-----------------------|
A|-----------------------------------|---------------------3--------------------|
E|-----------------------------------|------------------------------------------|
              It's tough to handle       this fortune and fame
e|-----------------------------------|------------------------------------------|
B|-----------------------------------|------------------------------------------|
G|-----------------------------------|------------------------------------------|
D|--------3--x-x-x-x---3-2--x-x-x-x--|---2-0--x-x-x-x---0-----------------------|
A|-----------------------------------|----------------------3-------------------|
E|-----------------------------------|------------------------------------------|
            Everybody's so different,  I haven't changed
e|-----------------------------------|------------------------------------------|
B|-----------------------------------|------------------------------------------|
G|-----------------------------------|------------------------------------------|
D|--------3--x-x-x-x---3-2--x-x-x-x--|---2-0--x-x-x-x---0-----------------------|
A|-----------------------------------|----------------------3-------------------|
E|-----------------------------------|------------------------------------------|
           They say I'm lazy but it takes all my time (Oh Yeah)
e|----------3-----3-----------------|-------0--------0---------0---------0------|
B|----------3-----3-----------------|-------1--------0---------1---------0------|
G|----------------------------------|-------0--------0---------0---------0------|
D|-------------------2-3-2-3-2-3/5--|----2--------0---------2---------0---------|
A|--3-2-0---------------------------|--3------------------3---------------------|
E|---------3----1-------------------|-----------3-------------------3-----------|
                 I keep on goin' guess I'll never know why
e|--------------------------3---------3-----------------------------------------|
B|--------------------------3---------3-----------------------------------------|
G|------------------------------------------------------------------------------|
D|-------------------------------------------2-3-2-3-2-3/5----------------------|
A|------------------------------------------------------------------------------|
E|-----------------------3-------1----------------------------------------------|
                Life's been  good  to   me   so   far
e|------------------------------------------------------------------------------|
B|--------------------------------1--------0-----2------------------------------|
G|------------------------------0--------0-------2------------------------------|
D|----------------------------2--------0---------2------------------------------|
A|--------------------------3--------2-----------0 -----------------------------|
E|------------------------------------------------------------------------------|

e|------------------------------5-5--|------------------------------------------|
B|------------------------------5-5--|-------------------------7--7-7-7-2-2-2---|
G|--2-2---2-2---2-2-2---2-2---2-2-2--|-------------------------7--7-7-7-2-2-2---|
D|--2-2---2-2---2-2-2---2-2---2------|-------2-------------2---7--7-7-7-2-2-2---|
A|--0-3br-0-3br-0-0-3br-0-3br-0------|-0-2/4---2br-0-0-2/4---4-5--5-5-5---------|
E|-----------------------------------|------------------------------------------|

e|-----------------------------------|------------------------------------------|
B|------------------------------7-2--|-----------------------5/7--7-7-7-2-2-2---|
G|--2-2---2-2---2-2-2---2-2---2-7-2--|-2-2---2-2---2-2-2---2-5/7--7-7-7-2-2-2---|
D|--2-2---2-2---2-2-2---2-2---2-7-2--|-2-2---2-2---2-2-2---2-5/7--7-7-7-2-2-2---|
A|--0-3br-0-3br-0-0-3br-0-3br-0-5----|-0-3br-0-3br-0-0-3br-0-3/5--5-5-5---------|
E|-----------------------------------|------------------------------------------|

************************************

| x   Dead note
| p   Pull-off
| b   Bend
| br  Bend release
| pb  Pre-bend
| /   Slide up
| N   Tremolo

************************************

            
            
Suggest correction
Creating personal tab
Creating personal tab
You can edit any tab online and save it as your Personal.

You can edit, replace or remove any tab part or add personal notes – all changes will be seen only by you.

Personal tabs can be accessed anytime from any device, even offline.
Learn more »
Give kudos to tab author, rate the tab!
1 2 3 4 5
comments
print report bad tab
guest
You may want to rate the tab now too:
select rating
Wanna post a correction for this tab? Suggest correction