Oops, an error
Loading. Please wait.

Meadows tab

1,120 views 6 this week
no commentswrite comment
1 2 3 4 5
x 7
add to favorites
×
Save as Personal and add changes to this tab that will be seen only by you. Learn more ›
×
You can save this tab as Personal to edit and correct it or add notes. All changes will be seen only by you. Learn more »
launch autoscroll
font size
0
reset
how to read this tab
guitar tuner
edit
Autoscroll
slow
fast
+/-
esc
set tempo
stop
Author
Difficulty
[Intro]

         D      A     D       A        D      A            D      A     D     A 
e|--------------------------------------------------------------------------------------|
B|-------3--3p--2-----3--3----2--------3--3p--2-----2------3--3p--2-----3--3--2--2------|
G|-------2--2p--2-----2--2----2--------2--2p--2-----2------2--2p--2-----2--2--2--2------|
D|-------4--4p--2-----4--4----2--------4--4p--2-----2------4--4p--2-----4--4--2--2------|
A|---0------------0-----------0-----0-------------0------0-----------0--------0--0------|
E|-------------------------------0------------------------------------------------------|

         G    F#  E  A   D      A     D      A              D      A    D    A    D     A         G  F# E  A
e|-----------------------------------------------------------------------------------------------------------|
B|-------------------2---3--3p--2-----3--3p--2----2-------3--3p--2----3--3p--2----3--3--2--2---------------2-|
G|----------0--------2---2--2p--2-----2--2p--2----2-------2--2p--2----2--2p--2----2--2--2--2--------0--0---2-|
D|---------0----0----2---4--4p--2-----4--4p--2----2-------4--4p--2----4--4p--2----4--4--2--2-------0-------2-|
A|-------------------0------------0------------0-------0------------0----------0---------------------------0-|
E|-0--2--3----2---0---------------------------------0-----------------------------------------0-2-3---2--0---|
-

A            
Can't think of any reason
           D
Don't know exactly why
A
Must be it's out of season
G       F#      A
Give it another try

A
I'm out here in the meadow
               D
Part of an old stone wall
A
Stand here because he said so
G        F#       A
Waitin' around to fall


[Intro Riff]


A
Some things are left unspoken
                D
Some things are handme down
A
The circle stands unbroken
G          F#   E  A
Sendin' it back around

A
I've seen you roll in clover
                D
Dressed for a scarecrow wall
A
Too bad the dance is over
G          F#   E  A
Nothin' to show at all


[Instrumental]

A
Can't help but feel uncertain
                   D
Knowing which way to turn
A
They want to raise the curtain
              G         F#   E  A
And you're holdin' the words to learn

A
I'm out here in the meadow
                   D
Part of an old stone wall
A
Stand here because he said so
              G         F#   E  A
Waitin' around to fall


[Intro Riff]

            
            
Suggest correction
Creating personal tab
Creating personal tab
You can edit any tab online and save it as your Personal.

You can edit, replace or remove any tab part or add personal notes – all changes will be seen only by you.

Personal tabs can be accessed anytime from any device, even offline.
Learn more »
comments
print report bad tab
guest
You may want to rate the tab now too:
select rating
Wanna post a correction for this tab? Suggest correction