Oops, an error
Loading. Please wait.

One Day At A Time Tab

version 1
version 1

Whole song

4,243 views 1 this week
no commentswrite comment
1 2 3 4 5
please rate
add to favorites
launch autoscroll
font size
0
reset
how to read this tab
guitar tuner
Autoscroll
slow
fast
+/-
esc
set tempo
stop
Help us to improve Ultimate-Guitar.com Take our survey!
×
Difficulty
intermediate
this is a song from the eagles farewell tour. Written by the joe walsh
This is just the tab. I'll send in the lyrics and chords another time.

-intro-
e---------------------------------------------------------------------------|
b------------------------9h-10-10-10-8-7-9h10-10-10-8-7---------------------|
g-10b-9-7----10b-7-9-7-9b---------------------------------------------9-9-9-|
d--------9-7--------9----------------------------------9-7-9-12-12-9-7------|
a---------------------------------------------------------------------------|
e---------------------------------------------------------------------------|

--------|
--------|
-7-11-7-|
--------|
--------|
--------|  (you'll have to listen to the song to get the timing correct)

Joe doesn't play anything again for the rest of the song until the solo.

-solo-

e--------------------------------------------5-----------------------------|
b-3-7-5-1b-------------5-7-8v-7b-5-7-5-3-7-8--5s21-17-19-20-19-20-19-20-19-|
g----------2-2--2-2s17-----------------------------------------------------|
d--------------2-----------------------------------------------------------|
a--------------------------------------------------------------------------|
e--------------------------------------------------------------------------|

-------19b-17-15-14-12-10-7s21-----------19v-17-15-----17v-20-19-17-15v----|
-17-15-------------------------17h-19h-20---------19-17--------------------|
---------------------------------------------------------------------------|
---------------------------------------------------------------------------|
---------------------------------------------------------------------------|
---------------------------------------------------------------------------|

----------------21--|v
--------------------|
-----------17-19----|
------16-18---------|
-17-19--------------|
--------------------|

thats it. bloody hard to play at first but a great song. Chords coming soon!
Suggest correction new What's this?
You can suggest a correction to this tab. Community and Mods will review your correction and vote to approve or reject it.
comments
We did not receive enough feedback on this tab! Please rate:
print report bad tab
1 2 3 4 5
guest
You may want to rate the tab now too:
select rating
Please do not post tabs as comments. Select "correction" instead!