Oops, an error
Loading. Please wait.

Rocky Mountain Way solo tab

version 1
version 1

Solo

  • Talk Box Solo in Open E (not standard tuning).

Whole song

Interactive

118 views 9 this week
no commentswrite comment
1 2 3 4 5
3 more votes to show rating
add to favorites
×
Save as Personal and add changes to this tab that will be seen only by you. Learn more ›
×
You can save this tab as Personal to edit and correct it or add notes. All changes will be seen only by you. Learn more »
launch autoscroll
font size
0
reset
how to read this tab
guitar tuner
backing track
0:00
0:00
edit
Autoscroll
slow
fast
+/-
esc
set tempo
stop
About this tab version
Talk Box Solo in Open E (not standard tuning). Was this info helpful? Yes No
Rocky Mountain Way – Voice Box/ Wah Solo in Open E
-----------------------------------------------------------------
Tabbed by: David Collins
davecoll27@hotmail.com
This is my attempt at transcribing the Talk Box Guitar Solo from standard tuning into Open E tuning 
(I play this using my wah pedal as I don't have a Talk Box). It's not perfect and there are some notes 
that are bent up and/or down - but if you use this as a basic guide it sounds pretty close to the record... 
I have not seen anyone else attempt to transpose it. This is my first tab ever. 

Tuning: EBEG#Be

e|---------------------------------------------------------------------------|
B|---------------------------------------------------------------------------|
G|---------------------------------------------------------------------------|
D|---------------------------------------------------------------------------|
A|---0—-3-3-----0—-3-3---0--3-5--------------0—-3-3----0—-3-3---0-3-5--------|
E|------------------------------5-3-0---------------------------------5-3-0--|
          ~          ~          b                 ~         ~         b

e|----------------------------------------------------|
B|----------------------------------------------------|
G|----------------------------------------------------|
D|----------------------------------------------------|
A|---0--3-5------0-3-5-3----3---------0-3-5-3---------|
E|----------------------5-3-------------------5-3-0---|
          ~          ~  b   ~             ~   b
        
e|--------------------------------------------------------------|
B|-------------------8--10-10—10--8-----------------------------|
G|--8--6--5--------8-------------------8--6--5--------6---8---6-|
D|----------7-----------------------------------7---7---7---7---|
A|--------------------------------------------------------------|
E|--------------------------------------------------------------|
       ~           /     b  b             ~

e|--------------------------------------------------------------------------|
B|----15---15---15---15----15------------------15--15--15--12---------------|
G|-13---13---13---13----13----13---11---8----------------------13--11---8---|
D|--------------------------------------------------------------------------|
A|--------------------------------------------------------------------------|
E|--------------------------------------------------------------------------|
   b     b    b    b    b               ~       b   b  b       ~       ~

e|----------------------------------------------------------------------------------|
B|-----15---15-----15-------15----15---15----------15----15---15----17----17--15----|
G|--15----15----15-------15----15---15---------15----15----15--------------------15-|
D|----------------------------------------------------------------------------------|
A|----------------------------------------------------------------------------------|
E|----------------------------------------------------------------------------------|

e|--------------------------------------------|
B|--------------------------------------------|
G|--------------------------------------------|
D|---10--10--10--12--10-------10--10--10--12--|
A|----------------------12--------------------|
E|--------------------------------------------|

After this it goes into the slide solo.

************************************

| ~  Vibrato

************************************
Suggest correction
Creating personal tab
Creating personal tab
You can edit any tab online and save it as your Personal.

You can edit, replace or remove any tab part or add personal notes – all changes will be seen only by you.

Personal tabs can be accessed anytime from any device, even offline.
Learn more »
Give kudos to tab author, rate the tab!
1 2 3 4 5
comments
print report bad tab
guest
You may want to rate the tab now too:
select rating
Wanna post a correction for this tab? Suggest correction