Oops, an error
Loading. Please wait.

Rocky Mountain Way Bass Tab

version 2
version 2

Whole song

Interactive

23,485 views 36 this week
no commentswrite comment
1 2 3 4 5
x 8
add to favorites
launch autoscroll
font size
0
reset
guitar tuner
backing track
0:00
0:00
×
Best way to learn
"Rocky Mountain Way"
Autoscroll
slow
fast
+/-
esc
set tempo
stop
Author
Difficulty
Tuning: EADG

Time signature: 4/4

[Intro](4x)
(bass on 4th)
G|-----|--------------------------------|--------------------------------|
D|-----|--------------------------------|--------------------------------|
A|-----|--------------------------------|--------------------------------|
E|-----|------------------------12\-----|0-r---0-2-r---0-0-r---0-3---4-r-|

[Verse]  “Spent the last year”
G|--------------------------------|--------------------------------|
D|--------------------------------|--------------------------------|
A|--------------------------------|--------------------------------|
E|0-r---0-2-r---0-0-r---0-5-----3-|0-r---0-0-r---0-0-r---0-0-r---0-|

(3x)
G|--------------------------------|--------------------------------|
D|--------------------------------|--------------------------------|
A|--------------------------------|--------------------------------|
E|0-r---0-0-r---0-0-r---0-5--5--3-|0-r---0-0-r---0-0-r---0-0-r---0-|

                        “And  we  don’t  need  the  ladies ”
G|--------------------------------|--------------------------------|
D|--------------------------------|--------------------------------|
A|--------------------------------|--------------------------------|
E|0-r---0-0-r---0-3-------4-------|5-r---5-5-r---5-5-r---5-5-r---5-|

G|--------------------------------|--------------------------------|
D|--------------------------------|--------------------------------|
A|--------------------------------|--------------------------------|
E|5-r---5-5-r---5-5-5-5---5-5-5---|0-r---0-2-r---0-0-r---0-3-r---0-|

G|--------------------------------|--------------------------------|
D|--------------------------------|--------------------------------|
A|--------------------------------|--------------------------------|
E|0-r---0-2-r---0-0-r---0-3---4---|5-----5-5-r---5-5-r---5-5-r---5-|

G|--------------------------------|--------------------------------|
D|--------------------------------|--------------------------------|
A|--------------------------------|--------------------------------|
E|5-r---5-5-r---5-5-r---5-5-r---5-|7-7-7---7-7-7---7-7-7---7-7-7---|

G|--------------------------------|
D|--------------------------------|
A|--------------------------------|
E|7-7-7---7-7-7---7-7-7---7-5-3---|

[Verse]  “Spent the last year”
G|--------------------------------|--------------------------------|
D|--------------------------------|--------------------------------|
A|--------------------------------|--------------------------------|
E|0-r---0-2-r---0-0-r---0-5-----3-|0-r---0-0-r---0-0-r---0-0-r---0-|

[Interlude]  (24x)
G|--------------------------------|------------------------------------|
D|--------------------------------|------------------------------------|
A|--------------------------------|------------------------------------|
E|0-r---0-0-r---0-0-r---0-0-r---0-|5--5--5-5--5--5-5-r-5-5--5-5--5-5—5-|

G|--------------------------------|--------------------------------|
D|--------------------------------|--------------------------------|
A|--------------------------------|--------------------------------|
E|0-r---0-3-r---0-0-r---0-5-r---0-|0-r---0-3-r---0-0-r---0-5-r---0-|

G|---------------------------------|--------------------------------|
D|---------------------------------|--------------------------------|
A|---------------------------------|--------------------------------|
E|5--5--5--5-r---5-5-r---5-5-r---5-|5-r---5-5-r---5-5-r---5-5--5--5-|

G|----------------------------------|--------------------------------|
D|----------------------------------|--------------------------------|
A|----------------------------------|--------------------------------|
E|7--7--7--7-r---7-7--7--7--7-r---7-|7-r---7-7-r---7-7-r---7-7-r---7-|


************************************

| r  Release
| \  Slide down

************************************
Suggest correction
comments
print report bad tab
guest
You may want to rate the tab now too:
select rating
Wanna post a correction for this tab? Suggest correction