Oops, an error
Loading. Please wait.

Rocky Mountain Way Tab

version 2
version 2

Whole song

Interactive

29,357 views 12 this week
4 commentsread comments
1 2 3 4 5
x 3
add to favorites
×
Save as Personal and add changes to this tab that will be seen only by you. Learn more ›
×
You can save this tab as Personal to edit and correct it or add notes. All changes will be seen only by you. Learn more »
save as personal
new!
launch autoscroll
font size
0
reset
how to read this tab
guitar tuner
backing track
0:00
0:00
Autoscroll
slow
fast
+/-
esc
set tempo
stop
Author
Tuning Standard

e---------------------|
B---------------------|Just keep repeating until Joe
G---------------------|starts to sing
D---9-9------11--9----|
A---7-7-------7--7----|
E---0-0---------------|

e--------------------------------------|
B--------------------------------------|Solo to intro
G--9--9--7---7---7---7---7h9--/12\(9)--|
D----------9---------------------------|
A--------------------------------------|
E--------------------------------------|

e-------------------|
B-------------------|And just keep on repeating
G----2--------------|
D----2-------2------|
A----0-------2------|
E--0---3b(4)-0------|

Solo

e-----------------------------------|
B-----------------------------------|
G--9--9/--9-9-9/--7h9-7-------------|
D-----------------------9-7---------|
A---------------------------10-7~/--|
E-----------------------------------|

e-----------------------------------|
B-----------------------------------|
G--9--9/--9-9-9/--7h9-7-------------|
D-----------------------9-7---------|
A---------------------------10-7~/--|
E-----------------------------------|

e-----------------------------------|
B----------------------8-10-8-------|
G----9-7~~~~6--------9--------9-----|
D--9----------9---------------------|
A---------------7-------------------|
E-----------------------------------|

e------10-----10-----10-----10--|
B--10b----10b----10b----10b-----|just keep repeating
G-------------------------------|then go back to the
D-------------------------------|blues riff again
A-------------------------------|
E-------------------------------|

That's it.
Suggest correction
Give kudos to tab author, rate the tab!
1 2 3 4 5
comments
print report bad tab
4 comments total. Showing first comments.
0 reply
mikedeit 1,163 Feb 27, 2005 07:00 PM

Sorry! I missed a couple of riffs. I'll give you the right version.

e----------------------
B----------------------repeat over again
G----------------------
D---9--9------11--9----
A---7--7-------7--7----
E---0--0---------------

Intro solo
e-------------------------------
B-------------------------------
G--9-9p7---7--7--7--7--9/12\9---
D--------9----------------------
A-------------------------------
E-------------------------------

e---------------------------
B---------------------------
G----2----------------------
D----2-------2--------------
A----0-------2--------------
E--0---3b(4)-0--------------

Solo

e-----------------------------------
B-----------------------------------
G--9--9/--9-9-9/--7h9-7-------------
D-----------------------9-7---------
A---------------------------10-7~/--
E-----------------------------------

e-----------------------------------
B-----------------------------------
G--9--9/--9-9-9/--7h9-7-------------
D-----------------------9-7---------
A---------------------------10-7~/--
E-----------------------------------

e-----------------------------------
B----------------------8-10-8-------
G----9-7~~~~6--------9--------9-----
D--9----------9---------------------
A---------------7-------------------
E-----------------------------------

e------10-----10-----10-----10-----10--
B--10b----10b----10b----10b----10b-----
G--------------------------------------
D--------------------------------------
A--------------------------------------
E--------------------------------------

e---------------------------
B---------------------------repeat until the end of the song
G----2----------------------
D----2-------2--------------
A----0-------2--------------
E--0---3b(4)-0--------------

Notation used:
p-pull off
h-hammer on
b-bend
(4)-ghost note
\-slide down
/-slide up
~-vibrato

This is pretty close to the real thing.

0 reply
mikedeit 1,163 Feb 27, 2005 07:00 PM

Don't pay any attention to the other version. Rate this one instead!

0 reply
mikedeit 1,163 Mar 15, 2005 07:00 PM

Never mind, I didn't know that you can update yur own tabs. It doesn't matter now

guest
You may want to rate the tab now too:
select rating
Wanna post a correction for this tab? Suggest correction