Oops, an error
Loading. Please wait.

Welcome To The Club tab

6,453 views 9 this week
1 commentread comment
1 2 3 4 5
x 8
add to favorites
×
Save as Personal and add changes to this tab that will be seen only by you. Learn more ›
×
You can save this tab as Personal to edit and correct it or add notes. All changes will be seen only by you. Learn more »
launch autoscroll
font size
0
reset
how to read this tab
guitar tuner
edit
Autoscroll
slow
fast
+/-
esc
set tempo
stop
Artist: Joe Walsh
Song: Welcome to the Club
Album: So What

Tuning: EADGBE (Standard)

Intro:
E--------------|
B--12-12--7-7--|
G--12-12--7-7--|
D--12-12--7-7--|
A--10-10--5-5--|
E--------------|

E---------------0---------------0--|
B--3-3--3--3-3--0----3--3--3-3--5--|
G--4-4--4--2-2--0----4--4--2-2--6--|
D----5--5--4-4--2----5--5--4-4--7--|
A----0--0--0-0-------0--0--0-0--0--|
E----------------------------------|

E----------------------------------|
B--3--3--3-3----8-7--7--3-3-3-3/5--|
G--4--4--2-2----9-7--7--4-4-4-4/6--|
D--5--5--4-4----7-7--7--5-5-5-5-7--|
A--0--0--0-0----0-0--0--0-0-0-0-0--|
E----------------------------------|

E--------------------0----------------------0-----------|
B--2-2----3--3--3-3--0-----------3--3--3-3--5------5----|
G--2-2----4--4--2-2--0-----------4--4--2-2--6------6----|
D--2-2----5--5--4-4--2----2-2----5--5--4-4--7----7-7-7--|
A--0-0--0-0--0--0-0-------0-0--0-0--0--0-0--0----0-0-0--|
E-------------------------------------------------------|

E-----------------------------------------------|
B--3--3--3-3------8-7--7----3-3-3-3/5------5----|
G--4--4--2-2------9-7--7----4-4-4-4/6------6----|
D--5--5--4-4------7-7--7----5-5-5-5-7----7-7-7--|
A--0--0--0-0-0--0-0-0--0-0--0-0-0-0-0----0-0-0--|
E-----------------------------------------------|

E---------------------------|
B--3--3----3---2------------|
G--4--4----2---2-----2-2----| x2
D--5--5--4-4-4-2--4--2-2-4--|
A--0--0--0-0-0-0--0--0-0-0--|
E---------------------------|

E---------------|
B--3--3----3----|
G--4--4----2----|
D--5--5--4-4-4--|
A--0--0--0-0-0--|
E---------------|

E------------------------------|
B----------------5--------3----|
G----------------2--------2----| x3
D--2--4--2--4----2--2-2h4-4-4--|
A--0--0--0--0----0--0-0-----0--|
E------------------------------|

E----------------------------|
B----------------12-12--7-7--|
G----------------12-12--7-7--|
D--2--4--2--4----12-12--7-7--|
A--0--0--0--0----10-10--5-5--|
E----------------------------|

Verse 1:
E-------------------------------------------------|
B-------------------------------------------------|
G-----------4----6------2-------------------2--x--|
D--2--4--2----/7----4p2-------2--2--4--2--4-2--x--|
A--0--0--0--0-------------3h4----0--0--0--0-0--x--|
E-------------------------------------------------|

E----------------------------------------------------------|
B----------------------------------------------12-12--7-7--|
G-----------4----6------2-------------------2--12-12--7-7--|
D--2--4--2----/7----4p2-------2--2--4--2--4-2--12-12--7-7--|
A--0--0--0--0-------------3h4----0--0--0--0-0--10-10--5-5--|
E----------------------------------------------------------|

E----------------------------------------------|
B--------------------------------------3-2--x--|
G---------------------2----------------2-2--x--|
D--2--4--2--4--5--4-2-------2-2--4--2--4-2--x--|
A--0--0--0--0-----------3h4---0--0--0--0-0--x--|
E----------------------------------------------|

E-----------------------------------------------------|
B-----------------------------------------12-12--7-7--|
G---------------------2-------------------12-12--7-7--|
D--2--4--2--4--5--4-2-------2-2--4--2--4--12-12--7-7--|
A--0--0--0--0-----------3h4---0--0--0--0--10-10--5-5--|
E-----------------------------------------------------|

Verse 2:
E----------------------------------------------|
B--------------------------------------3-2--x--|
G---------------------2----------------2-2--x--|
D--2--4--2--4--5--4-2-------2-2--4--2--4-2--x--|
A--0--0--0--0-----------3h4---0--0--0--0-0--x--|
E----------------------------------------------|

E-----------------------------------------------------|
B-----------------------------------------12-12--7-7--|
G---------------------2-------------------12-12--7-7--|
D--2--4--2--4--5--4-2-------2-2--4--2--4--12-12--7-7--|
A--0--0--0--0-----------3h4---0--0--0--0--10-10--5-5--|
E-----------------------------------------------------|

Chorus:
E-----------------------------------------------------------------------|
B-----14----14----14---14-14\-----------12----12----12---12-12\---------|
G-----14----14----14---14-14\-----------12----12----12---12-12\---------|
D-----14----14----14---14-14\-----------12----12----12---12-12\---------|
A--0------0----0-----0---------------0------0----0-----0----------------|
E------------------------------0-3b4-----------------------------0-3b4--|

E----------------------------------------------------|
B-----7----7----7---7-7------------------------------|
G-----7----7----7---7-7------------------------------|
D-----7----7----7---7-7----2--4--2-4--2-2--4--2-4-2--|
A--0-----0---0----0--------0--0--0-0--0-0--0--0-0-0--|
E----------------------------------------------------|

The rhythm part under the guitar break is the same as the chorus, except after the D 
play this:
E--------------------------------------------------|
B-----------------------------------12-12--7-7--2--|
G-----------------------------------12-12--7-7--2--|
D--2--4--2-4--2-2--4--2--2--4--2-4--12-12--7-7--2--|
A--0--0--0-0--0-0--0--0--0--0--0-0--10-10--5-5--0--|
E--------------------------------------------------|

Guitar Break:

E--------10b11r10p8-10b11-8------------------------------12---------------------|
B--10-----------------------10--------10-12--10----12b14-----12b14-12b14r12-10--|
G---------------------------------/11-------------------------------------------|
D-------------------------------------------------------------------------------|
A-------------------------------------------------------------------------------|
E-------------------------------------------------------------------------------|

This is is doubled either by a guitar playing the same line an octave up or use of an 
pedal.  Also, there is a harmony part played on the last three notes:
E---------------------|
B--15b17-15b17r15-14--|
G---------------------|
D---------------------|
A---------------------|
E---------------------|

Guitar Solo Rhythm:
E---------------0---------------0--|
B--3-3--3--3-3--0----3--3--3-3--5--|
G--4-4--4--2-2--0----4--4--2-2--6--|
D----5--5--4-4--2----5--5--4-4--7--|
A----0--0--0-0-------0--0--0-0--0--|
E----------------------------------|

E----------------------------------|
B--3--3--3-3----8-7--7--3-3-3-3/5--|
G--4--4--2-2----9-7--7--4-4-4-4/6--|
D--5--5--4-4----7-7--7--5-5-5-5-7--|
A--0--0--0-0----0-0--0--0-0-0-0-0--|
E----------------------------------|

E--------------------0----------------------0-----------|
B--2-2----3--3--3-3--0-----------3--3--3-3--5------5----|
G--2-2----4--4--2-2--0-----------4--4--2-2--6------6----|
D--2-2----5--5--4-4--2----2-2----5--5--4-4--7----7-7-7--|
A--0-0--0-0--0--0-0-------0-0--0-0--0--0-0--0----0-0-0--|
E-------------------------------------------------------|

E-----------------------------------------------|
B--3--3--3-3------8-7--7----3-3-3-3/5------5----|
G--4--4--2-2------9-7--7----4-4-4-4/6------6----|
D--5--5--4-4------7-7--7----5-5-5-5-7----7-7-7--|
A--0--0--0-0-0--0-0-0--0-0--0-0-0-0-0----0-0-0--|
E-----------------------------------------------|

The above section is played twice.  The second time through, continue to this:
E---------------0---------------0--|
B--3-3--3--3-3--0----3--3--3-3--5--|
G--4-4--4--2-2--0----4--4--2-2--6--|
D----5--5--4-4--2----5--5--4-4--7--|
A----0--0--0-0-------0--0--0-0--0--|
E----------------------------------|

E----------------------------------|
B--3--3--3-3----8-7--7--3-3-3-3/5--|
G--4--4--2-2----9-7--7--4-4-4-4/6--|
D--5--5--4-4----7-7--7--5-5-5-5-7--|
A--0--0--0-0----0-0--0--0-0-0-0-0--|
E----------------------------------|

E--------------------0----------------------0-----------|
B--2-2----3--3--3-3--0-----------3--3--3-3--5------5----|
G--2-2----4--4--2-2--0-----------4--4--2-2--6------6----|
D--2-2----5--5--4-4--2----2-2----5--5--4-4--7----7-7-7--|
A--0-0--0-0--0--0-0-------0-0--0-0--0--0-0--0----0-0-0--|
E-------------------------------------------------------|

E---------------|
B--3--3----3----|
G--4--4----2----|
D--5--5--4-4-4--|
A--0--0--0-0-0--|
E---------------|

Guitar Solo:
E----------------------------------------------------------------------|
B----------------------------------------------------------------------|
G--4b6-4b6r4-2-4---2--------2---4b6-4b7-4b6r4-2------2-----2--4b6-2----|
D----------------4---4--2h4---2------------------2h4---2h4----------4--|
A-----------------------------0----------------------------------------|
E----------------------------------------------------------------------|

E----------------------------------------------------------------------|
B------5---------------------------------------------------------------|
G--4b6---4b6-4-2--------2-----2-----2-----2-2---------------14-14------|
D----------------4--2h4---2h4---2h4---2h4----------14-14h16-------/19--|
A----------------------------------------------/16---------------------|
E----------------------------------------------------------------------|

E-----------------------------------------------------------------------|
B-------------------------------------------------------15-17-----------|
G------------17b18--------17----19----17b18-------17b18-------17b18-14--|
D--19-17-19---------17h19----19----19-------19--------------------------|
A-----------------------------------------------------------------------|
E-----------------------------------------------------------------------|

E--------15-----------17-----17----------------17--------17----------------17--|
B--15b17====17r15-14--20b22-----20-17-------17----20b22-----20-17-------17-----|
G-------------------------------------19b21-----------------------19b21--------|
D------------------------------------------------------------------------------|
A------------------------------------------------------------------------------|
E------------------------------------------------------------------------------|

E--21b22--21--(19)b21r19-17-19-17-----------17-------17-------17------------------
B---------------------------------19--17h19----17h19----17h19---------------------
G----------------------------------------------------------------18\16-14-14------
D-----------------------------------------------------------------------------16--
A---------------------------------------------------------------------------------
E---------------------------------------------------------------------------------

E-----------------14----------------14-----------------------------|
B--------------------17p14-------14--------------------------------|
G--------14-16b18----------16b18-------16b18r16p14-16p14----16b18--|
D--14h16-------------------------------------------------16--------|
A------------------------------------------------------------------|
E------------------------------------------------------------------|

Outro Lead (played under chorus chords):
E--21p17----21p17----21p17----21p17----21p17----21p17----21p17----17--|
B--------17-------17-------17-------17-------17-------17-------17-----|
G---------------------------------------------------------------------|
D---------------------------------------------------------------------|
A---------------------------------------------------------------------|
E---------------------------------------------------------------------|

E--19p15----19p15----19p15----19p15----19p15----19p15----19p15----15--|
B--------15-------15-------15-------15-------15-------15-------15-----|
G---------------------------------------------------------------------|
D---------------------------------------------------------------------|
A---------------------------------------------------------------------|
E---------------------------------------------------------------------|

E--22p17----22p17----22p17----22p17----22p17----22p17----22p17----22p17-----|
B--------19-------19-------19-------19-------19-------19-------19-------19--|
G---------------------------------------------------------------------------|
D---------------------------------------------------------------------------|
A---------------------------------------------------------------------------|
E---------------------------------------------------------------------------|

E--21p17----21p17----21p17----21p17----21p17----21p17----22p17----22p17-----|
B--------17-------17-------17-------17-------17-------17-------17-------17--|
G---------------------------------------------------------------------------|
D---------------------------------------------------------------------------|
A---------------------------------------------------------------------------|
E---------------------------------------------------------------------------|

Repeat until fade.

            
            
Suggest correction
Creating personal tab
Creating personal tab
You can edit any tab online and save it as your Personal.

You can edit, replace or remove any tab part or add personal notes – all changes will be seen only by you.

Personal tabs can be accessed anytime from any device, even offline.
Learn more »
comments
print report bad tab
1 comment total.
0 reply
tmcguire 10 Aug 25, 2017 10:42 PM

Love this song. Great to see it tabbed and I think you did a great job with it.

guest
You may want to rate the tab now too:
select rating
Wanna post a correction for this tab? Suggest correction