Oops, an error
Loading. Please wait.

Nadie Es Eterno En El Mundo Tab

734 views 1 this week
no commentswrite comment
1 2 3 4 5
3 more votes to show rating
add to favorites
launch autoscroll
font size
0
reset
how to read this tab
guitar tuner
Autoscroll
slow
fast
+/-
esc
set tempo
stop
Help us to improve Ultimate-Guitar.com Take our survey!
×
Con esta melodía inicia la canción y es la misma del intermedio.
Incluso,si lo deseas, puedes modificarla un poco para la salida.

Sólo se usan las dos primeras cuerdas y depende de ti el matiz
que le des; alargando o repitiendo algunas notas.

6|------------------------------------------------------------------
5|------------------------------------------------------------------
4|------------------------------------------------------------------
3|------------------------------------------------------------------
2|-1-5-10-10--10-6-6--6-6~8-8---8---1-5-10-10--10-6-6--6-6~8-8---8--
1|-0-3-8--8---8--5-5--5-5~7---7-7---0-3-8--8---8--5-5--5-5~7---7-7--


6|------------------------------------------------------------------
5|------------------------------------------------------------------
4|------------------------------------------------------------------
3|------------------------------------------------------------------
2|-1-3-5--5-5-5--3-5-6--6-6-6-0-1-3-3-5-6-5-3-5--5-5-5-5-5----------
1|-0-1-3--3-3-3--1-3-5--5-5-5--0-0-1-1-3-5-3-1-3-3-3-3-3-3----------


6|------------------------------------------------------------------
5|------------------------------------------------------------------
4|------------------------------------------------------------------
3|------------------------------------------------------------------
2|-1-3-5--5-5-5-10-8-10-6-6-6-5-6--8--8-8-8-10-12-10-8-6-5--5-5-3-1-
1|-0-1-3--3-3-3-8--7-8--5-5-5--3-5-7--7-7-7-8--10-8---7-5-3-3-3-1-0-


DO        SOL7       DO    DO7
Nadie es eterno en el mundo
FA                 SOL7
ni teniendo un corazón
FA          SOL7      DO    LAm
que tanto siente suspira
        REm  SOL    DO
por la vida y el amor.

 DO       SOL7     DO    DO7
Todo lo acaban los años
FA                 SOL7
dime que te llevas tú
FA         SOL7       DO    LAm
si con el tiempo no queda
       REm SOL7     DO
ni la tumba ni la cruz.

         DO          FA       SOL7
Cuando ustedes me estén despidiendo
       DO        FA          SOL7
con el último adiós de este mundo
        DO        FA        SOL7
no me lloren que nadie es eterno
        DO        FA       SOL7
nadie vuelve del sueño profundo.

      DO DO7    FA
Sufrirás, llorarás
         SOL7                DO
mientras te acostumbres a perder
          DO7      FA
después te resignarás
        SOL7               DO
cuando ya no me vuelvas a ver.


          SOL7        DO    DO7
Adiós a los que se quedan
FA                   SOL7
siempre les quise cantar
FA           SOL7      DO     LAm
suerte y que la gocen mucho
          REm    SOL7   DO
ya no hay tiempo de llorar.

          SOL7        DO    DO7
No lloren por el que muere
FA                  SOL7
que para siempre se va
FA          SOL7        DO    LAm
lloren por el que se queje
       REm SOL7  DO
si le pueden ayudar.

         DO          FA       SOL7
Cuando ustedes me estén despidiendo
       DO        FA          SOL7
con el último adiós de este mundo
        DO        FA        SOL7
no me lloren que nadie es eterno
        DO        FA       SOL7
nadie vuelve del sueño profundo.

      DO DO7    FA
Sufrirás, llorarás
         SOL7                DO
mientras te acostumbres a perder
          DO7      FA
después te resignarás
        SOL7               DO
cuando ya no me vuelvas a ver.
Suggest correction
Give kudos to tab author, rate the tab!
1 2 3 4 5
comments
print report bad tab
guest
You may want to rate the tab now too:
select rating
Wanna post a correction for this tab? Suggest correction