Oops, an error
Loading. Please wait.

Happen Now tab

version 1
version 1

Whole song

10,856 views 6 this week
1 commentread comment
1 2 3 4 5
1 last vote to show rating
add to favorites
×
Save as Personal and add changes to this tab that will be seen only by you. Learn more ›
×
You can save this tab as Personal to edit and correct it or add notes. All changes will be seen only by you. Learn more »
launch autoscroll
font size
0
reset
how to read this tab
guitar tuner
edit
Autoscroll
slow
fast
+/-
esc
set tempo
stop
HAPPEN NOW

EVERYTHING IS STANDARD EXCEPT Caug AND Fadd9

       Caug             Fadd9
e|-----0----------------3------------|
B|-----1----------------1------------|
G|-----1----------------2------------|
D|-----2----------------3------------|
A|-----3-----------------------------|
E|-----------------------------------|


[Verse]
C                     F
Lean on in and let me bend your ear
          C                      F
I heard a little love could go a long way here
C                  F
If I could I'd get lost tonight
       C                         F
In the deep dark woods under the neon lights

RIFF (x2)

          C                         F
When your light turned green and my lamp got lit
          C                       F
I made my first mistake and man I paid for it

[Chorus]
C                        G           F
What do you want me to do to make it happen now?  (x2)

RIFF (x2)

C                         F
All my life man I've been runnin' scared
           C                        F
But when I turn around I dont see nobody there

Tenor Guitar solo (not tabbed)  (Am-F)

[Bridge]
   C            Caug
To be alone, to come undone,
   F             Fadd9
To be the one to be with you

[Chorus]
C                        G           F
What do you want me to do to make it happen now? (x4)


RIFF UNTIL END


e|-15-------12p10-12-------8-|-8------------------------|-------------------------|-------------------------|
B|---------------------------|----8--10-----8-----------|-------------------------|-5-----------------------|
G|---------------------------|-----------9-----9--7--5--|-5-----------------------|----5--7--4--5-p4--------|
D|---------------------------|--------------------------|----------7p5-7----------|-------------------7--5--|
A|---------------------------|--------------------------|-------------------------|-------------------------|
E|---------------------------|--------------------------|-------------------------|-------------------------|


If you are playing this alone, I like to put it in open C (GGCGCE)

All C's are open, all F's are a bar on 5 and G is a bar on 7. This way the riff can be played
but still have the chords in the background. The riff :


E|--15-12----12---8------------------------------------------------------|
C|--------14--------7-9--------------------------------------------------|
G|----------------------9--10--9-7--------------9----7-------------------|
C|----------------------------------12--9----9----12---11--12--11--9-----|
G|----------------------------------------12-------------------------12--|
G|-----------------------------------------------------------------------|

            
            
Suggest correction
Creating personal tab
Creating personal tab
You can edit any tab online and save it as your Personal.

You can edit, replace or remove any tab part or add personal notes – all changes will be seen only by you.

Personal tabs can be accessed anytime from any device, even offline.
Learn more »
Give kudos to tab author, rate the tab!
1 2 3 4 5
comments
print report bad tab
1 comment total.
0 reply
Who66 1,196 Aug 09, 2010 06:26 PM

You can also Capo 5 and play in G to get a bit of the Tenor-like high ringing sound.

guest
You may want to rate the tab now too:
select rating
Wanna post a correction for this tab? Suggest correction