Oops, an error
Loading. Please wait.

Natural Disaster tab

version 2
version 2

Whole song

5,640 views 6 this week
2 commentsread comments
1 2 3 4 5
x 5
add to favorites
×
Save as Personal and add changes to this tab that will be seen only by you. Learn more ›
×
You can save this tab as Personal to edit and correct it or add notes. All changes will be seen only by you. Learn more »
launch autoscroll
font size
0
reset
how to read this tab
guitar tuner
edit
Autoscroll
slow
fast
+/-
esc
set tempo
stop
In drop D, G is played     Em is
3                          0
3                          0
0                          0
0                          2
5                          2
5                          2


INTRO: Acoustic/Clean
e|---------------------------------------------------------------------------|
B|-----3h5-3-----------------------------------------------------------------|
G|-----------2h4-2---0------------------------------x2-----------------------|
D|--0------------------4--0-2-2h4-2-0-0h2------------------------------------|
A|---------------------0--0-0-0---0-0-0--------------------------------------|
D|-0-------------------0-----------------------------------------------------|

MAIN RIFF: Heavy Distortion
e|---------------------------------------------------------------------------|
B|---------------------------------------------------------------------------|
G|-----------------------------------------------x2--------------------------|
D|---------12-12-9-7--7-4-2-2h4-2-0-2--5-------------------------------------|
A|---------10-9--7-5--5-2-0-0---0-0-2--5-------------------------------------|
D|----0-0---------------------------2--5-------------------------------------|

VERSE 1: Lotys of Palm Muting
    D               Bm       G                A
The air was getting heavy, I knew that it was coming
So I started up the Chevy to keep the motor runnin
A storm came down upon us, and flooded all the rivers
Surrounded by pirahnas and the doctors who deliver

FILL 1:
e|-----------------------
B|-----------------------
G|-----------------------
D|------0-2-0------------
A|--0h2-------2-0--------
D|----------------5------


PRECHORUS: 
G  G/F#           Em     Fill 1
Anything that you require  
G       G/F#              Em    Em G
Now the fields are all on fire


CHORUS
D           A         Bm              G
La de da de da de da, battin down the hatches Becky,
D           A              Bm          G
Open up the earth and sky, waitin on a natural disaster
D             A               Bm                   G        
Sittin out on my front porch, Watchin stone clouds movin faster
D Dsus4 D Dsus2 D   A                  G         Em G
                        Like a natural Disaster 

PLAY MAIN RIFF TWICE

VERSE 2: Same as Verse 1

Flood came between us, I Saw it on the tv
I went down to Pheonix to write my last cd

PRECHORUS:
And nobody's got pain
Just like the good old days, you can waste your life away

CHORUS

PLAY MAIN RIFF TWICE

GUITAR BREAK:
e|---------------------------------------------------------------------------|
B|---------------------------------------------------------------------------|
G|--11-11-11-----------------------------------------------------------------|
D|-----------11---11-12-14---------------------------------------------------|
A|--------------12---------12--9-7-7s9---------------------------------------|
D|---------------------------------------------------------------------------|

FILL 2:
e|-------------------------------
B|-------------------------------
G|-------------------------------
D|-----0-2s4-2s4-2s4-------------
A|-0h2---------------------------
E|-------------------------------

VERSE 3:Same as verse 1 EXCEPT after "Headed down the coast" play fill 2

I left NOVA SCOTIA, and headed down the coast
Tore a strip off Memphis, before i levelled Roanoake
I punished Pickles county, And headed for Las Crusades
Anyone Around Me will be covered in my bruises

PRECHORUS:
You want somethin to rememeber Me By
You can write my name in the sky, and sing la de da

CHORUS: Repeat last line once

MAIN RIFF x 4

OUTRO: Same as guitar break

            
            
Suggest correction
Creating personal tab
Creating personal tab
You can edit any tab online and save it as your Personal.

You can edit, replace or remove any tab part or add personal notes – all changes will be seen only by you.

Personal tabs can be accessed anytime from any device, even offline.
Learn more »
comments
print report bad tab
2 comments total.
0 reply
thechief00 51 Feb 19, 2007 05:32 AM

Good tab, your lyrics are way off though! Haha, no big deal, you just messed up Pecos County and Las Cruces place names.

-1 reply
ventrems 10 May 04, 2009 01:27 PM

awesome tune. thanks for posting.

small correction to the Main Riff (see *):

MAIN RIFF: Heavy Distortion
e|---------------------------------------------------------------------------|
B|---------------------------------------------------------------------------|
G|-----------------------------------------------x2--------------------------|
D|---------12-12-9-7--6-4-2-2h4-2-0-2--5-------------------------------------|
A|---------10-9--7-5--4-2-0-0---0-0-2--5-------------------------------------|
D|----0-0---------------------------2--5-------------------------------------|
*

guest
You may want to rate the tab now too:
select rating
Wanna post a correction for this tab? Suggest correction