Oops, an error
Loading. Please wait.

Itaktak Mo Bass Tab

183 views 1 this week
no commentswrite comment
1 2 3 4 5
3 more votes to show rating
add to favorites
launch autoscroll
font size
0
reset
guitar tuner
Autoscroll
slow
fast
+/-
esc
set tempo
stop
Help us to improve Ultimate-Guitar.com Take our survey!
×
Author
Difficulty
novice
----------------------------------------------------------------------------
			     Itaktak Mo - Joey De Leon
----------------------------------------------------------------------------

Tabbed by: Batang Ungas
e-mail: darvin_666@yahoo.com

Tuning: Standard (GDAE)

Intro:
G|-------------------------|
D|-------------------------|
A|-------------------------|
E|-333333333-5555555555----|

Verse:
G|------------------------------------------------------------------|
D|------------------------------------------------------------------|
A|-----------------05-555-------------------------------------------|x2
E|-03-3-33-05-5-55--------23-33-03-3-33-05-555-5/10101010101010-----|

Then:
G|----------------|
D|-0000000000-----|
A|-5555555555-----|
E|----------------|

Chorus:
G|------------------------------------|
D|-------5-----7-----------------5----|
A|-------------------5-0555-0---------|x3
E|-0-223---335---555----------33------|

G|------------------------------------|
D|-------5-----7----------------------|
A|------------------555555555555x3----|
E|-0-223---335---55-------------------|

G|--------------------|
D|--------------------|
A|-----------5-555----|
E|-3333-5555----------|

Verse 2:
G|------------------------------------------------------------------|
D|------------------------------------------------------------------|
A|-----------------05-555-------------------------------------------|x2
E|-03-3-33-05-5-55--------23-33-03-3-33-05-555-5/10101010101010-----|

Then:
G|----------------|
D|-0000000000-----|
A|-5555555555-----|
E|----------------|

Chorus 2: x2
G|------------------------------------|
D|-------5-----7-----------------5----|
A|-------------------5-0555-0---------|x3
E|-0-223---335---555----------33------|

G|------------------------------------|
D|-------5-----7----------------------|
A|------------------555555555555x3----|
E|-0-223---335---55-------------------|

G|--------------------|
D|--------------------|
A|-----------5-555----|
E|-3333-5555----------|

Outro:
G|--------------------|
D|--------------------|
A|-----------5-555----|
E|-3333-5555----------|

| /  slide up
| \  slide down
| h  hammer-on
| p  pull-off
| ~  vibrato
| +  harmonic
| x  Mute note
============================================================================
yan lang po... di ako sure kung tama yan... ginamit ko lang tong account ng pinsan ko... I'm Mark Darvin...


Suggest correction
Give kudos to tab author, rate the tab!
1 2 3 4 5
comments
print report bad tab
guest
You may want to rate the tab now too:
select rating
Wanna post a correction for this tab? Suggest correction