Oops, an error
Loading. Please wait.

What A Wonderful World tab

version 3
version 3

Whole song

Interactive

340 views 1 this week
no commentswrite comment
1 2 3 4 5
3 more votes to show rating
add to favorites
×
Save as Personal and add changes to this tab that will be seen only by you. Learn more ›
×
You can save this tab as Personal to edit and correct it or add notes. All changes will be seen only by you. Learn more »
launch autoscroll
font size
0
reset
how to read this tab
guitar tuner
backing track
0:00
0:00
edit
Autoscroll
slow
fast
+/-
esc
set tempo
stop
Author
Difficulty
intermediate
E--------------------|
B--------------------|
G--------------------|
D-------3-3----------|
A---------------3-3--|
E---1-1-----1-1------|

F5             A5    A#5       A5  G          F5    A5         D5
I see Trees of green Red roses too I see them bloom for me and you

Chorus
                Riff 2 A#5(2)     C5        E5/F5 F5 F5  A5(2) C C C C C C
And I say to myself          what a wonderful   world

Riff 2
e:--4-----------------------------3--------|
B:--6-----------------------------5--------|
G:--6-------1----------3----------5--------|
D:--6---1h3---3p1------3----------5--------|
A:--4-------------4----1----------3--------|
E:-----------------------------------------|

I see skies of blue and clouds of white Bright sunny days dark sacred  nights


Chorus

F#5 F#5 
C#5                         F                   Bb F
The colors of the rainbow, so pretty in the sky
    C                    C               Bb F
Are also on the faces on people going by
      Em              B     Em                  B
I see friends shaking hand, saying how do you do
                     C5 A5   G5
They’re really saying I love you

I hear babies cry I watch them grow They’ll learn much more, that I’ll never know


Chorus

     G5                     C5
Yes, I say to myself what a wonderful world

F5 F5 F5 F5 D#5 D#5 D#5 D#5 D5 D5 D5 D5

A#5                 C5
And I say to myself


                                           (x2)
|-8--8---8-8-----6-6-66--5-5-55--5-5-55-|-----3-----6-------------6------------8--|-----|
|-10-10--1010----8-8-88--7-7-77--7-7-77-|-----5-----6-------------8------------10-|-----|
|-10-10--1010----8-8-88--7-7-77--7-7-77-|-3---5--|--6-----1-------8-----3-3-33-10-|-----|
|-10—10--1010----8-8-88--7-7-77--7-7-77-|-3---5--|--6—1h3---3p1---8-3h5—-------10-|-----|
|-8—-8---8-8-----6-6-66--5-5-55--5-5-55-|-1---3--|--4-----------4-6------------8--|-8\x-|
|---------------------------------------|-----------------------------------------|-----|
wo  -   o   -   orld                    And i say   wo  -   o -   o -   orld
                                        to…

            
            
Suggest correction
Creating personal tab
Creating personal tab
You can edit any tab online and save it as your Personal.

You can edit, replace or remove any tab part or add personal notes – all changes will be seen only by you.

Personal tabs can be accessed anytime from any device, even offline.
Learn more »
Give kudos to tab author, rate the tab!
1 2 3 4 5
comments
print report bad tab
guest
You may want to rate the tab now too:
select rating
Wanna post a correction for this tab? Suggest correction