Oops, an error
Loading. Please wait.

Canon Tab

version 1
version 1

Acoustic

Interactive

330,663 views 273 this week
7 commentsread comments
1 2 3 4 5
x 30
add to favorites
launch autoscroll
font size
0
reset
how to read this tab
guitar tuner
Autoscroll
slow
fast
+/-
esc
set tempo
stop
Help us to improve Ultimate-Guitar.com Take our survey!
×
Author
Canon in C major -  Johann Pachelbel
tabbed by chesterman


    C       G       Am      Em         F         G         C        G
E|--0---|-------|-------|---3--3-3/5-|-1-0---1-|-0-------|--------|-------0-|
B|------|---3---|---1---|------------|-----3---|---3-1---|----0-1-|-0-1-3---|
G|------|-------|-------|------------|---------|-------0-|-2------|---------|
D|------|-------|-------|------------|---------|---------|-3------|---------|
A|--3---|-------|---0---|------------|---------|---------|--------|---------|
E|------|---3---|-------|---0--------|-1-------|-3-------|--------|-3-------|


    C       G       Am      Em          F         G         C        G
E|--0---|-------|-------|---3--3-3/5-|-1-0---1-|-0-------|--------|-------0-|
B|------|---3---|---1---|------------|-----3---|---3-1---|----0-1-|-0-1-3---|
G|------|-------|-------|------------|---------|-------0-|-2------|---------|
D|------|-------|-------|------------|---------|---------|-3------|---------|
A|--3---|-------|---0---|------------|---------|---------|--------|---------|
E|------|---3---|-------|---0--------|-1-------|-3-------|--------|-3-------|


    C          G         Am         Em        F          C       F          G
E|--0---3--0-|-0-1-0---|-----0----|---------|----------|-------|----------|---------|
B|----1------|-------3-|-1------1-|-1-3-1-0-|-----1----|-----1-|-----1----|---0-1-3-|
G|-----------|---------|---2------|---------|-2------2-|-2-0---|-2------2-|-2-------|
D|-----------|---------|----------|---------|-3-3------|-------|-3-3------|---------|
A|--3--------|---------|-0--------|---------|----------|-3-----|----------|---------|
E|-----------|-3-------|----------|-0-------|----------|-------|----------|-3-------|


    C           G                 Am            Em                F
E|--0-0-1-3-0-|-----------0-1-0-|-0-----0-----|-----------------|-------------------------|
B|------------|-3-----1-3-------|---1h3---3-1-|-0---------0h1-0-|----1-0----1-0-----------|
G|------------|---0h2-----------|-------------|-------0h2-------|-2------2------2-0---0-2-|
D|------------|-----------------|-------------|---2/3-----------|-------------------3-----|
A|--3---------|-----------------|-0-----------|-----------------|-3------3----------------|
E|------------|-3---------------|-------------|-0---------------|-------------------------|


    C                       G
E|------------------------|-------------0-1-|
B|--1-0-1---1-0-1---1-0-1-|-0-----0-1-3-----|
G|--------2-------0-------|---0-2-----------|
D|------------------------|-----------------|
A|--------3-------3-------|-----------------|
E|------------------------|-3---------------|


    C           G                 Am            Em                F
E|--0-0-1-3-0-|-----------0-1-0-|-0-----0-----|-----------------|-------------------------|
B|------------|-3-----1-3-------|---1h3---3-1-|-0---------0h1-0-|----1-0----1-0-----------|
G|------------|---0h2-----------|-------------|-------0h2-------|-2------2------2-0---0-2-|
D|------------|-----------------|-------------|---2/3-----------|-------------------3-----|
A|--3---------|-----------------|-0-----------|-----------------|-3------3----------------|
E|------------|-3---------------|-------------|-0---------------|-------------------------|


    C                       G                   C
E|------------------------|-------------0-1-|---3---|
B|--1-0-1---1-0-1---1-0-1-|-0-----0-1-3-----|---1---|
G|--------2-------0-------|---0-2-----------|---0---|
D|------------------------|-----------------|---2---|
A|--------3-------3-------|-----------------|---3---|
E|------------------------|-3---------------|-------|

This is a guitar tab of the piano solo of canon from a korean movie.
Suggest correction
comments
print report bad tab
7 comments total. Showing first comments.
0 reply
jtbull 30 Dec 06, 2008 10:14 PM

looks and sounds good you wuld not happen to have any video would you this seems hard. I was trying to find a single pick version of it without finger picking

0 reply
Grey Goshawk 10 Oct 04, 2010 09:25 AM

I'm pretty sure the movie the guy means is My Sassy Girl.
Nice tab =)

0 reply
JestyrGod 31 Apr 15, 2011 07:35 PM

this is so easy, and it sounds nice, also has the canon feel, but not exactly what I am used to, which is good in my book :)

guest
You may want to rate the tab now too:
select rating
Wanna post a correction for this tab? Suggest correction