Oops, an error
Loading. Please wait.

Canon Tab

version 2
version 2

Acoustic

Interactive

3,838 views 12 this week
no commentswrite comment
1 2 3 4 5
please rate
add to favorites
launch autoscroll
font size
0
reset
how to read this tab
guitar tuner
Autoscroll
slow
fast
+/-
esc
set tempo
stop
Help us to improve Ultimate-Guitar.com Take our survey!
×
Difficulty
intermediate
  D       A       Bm7     F#m     G       D       G       A

e-14--------------------------------------------------------------------|
B-15------17------15------14------12------10------12------14------------|
G-14------14------14------14------12------11------12------14------------|
D-0-------14------16------14------12------0-------12------14------------|
A-----------------14------x-------10--------------10------12------------|
E-------------------------14--------------------------------------------|

  D             A               Bm7           F#m

e-14----------------15--14----------------------------------------------|
B-15------------17----------17--15------------14------------------------|
G-14------------14--------------14------------14------------------------|
D-0-------------14--------------16------------14------------------------|
A-------------------------------14------------x-------------------------|
E---------------------------------------------14------------------------|

  G               D                    G               A

e-----------------------------------------------------------------------|
B-12----------12--10------10-----------12------12--15--14---------------|
G-12--14--12------11--12--11h12p11--x--12--14----------14---------------|
D-12--------------0--------------------12--------------14---------------|
A-10-----------------------------------10--------------12---------------|
E-----------------------------------------------------------------------|

  D               A             Bm7             F#m

e-----------------------------------------------------------------------|
B---------8-7---------------------------3-2-----------------------------|
G--------7----7-----------6--7---------2----4-2-------------------------|
D----7--7-------7--------5---------4--4-----------------2--4------------|
A-5------------------7--7-------2------------------4---4----------------|
E-----------------5-----------------------------2-----2-----------------|

  G               D               G               A7

e-------------------------3-2-0-----------------0-------------0---------|
B---------3-2-0----------3------3---------0-2-3-----------2-3-----------|
G--------0------2----2--2----------------0---------------0--------------|
D-------0---------0---------------------0------------2--2---------------|
A----x-------------------------------x------------0---------------------|
E-3-------------------------------3-------------------------------------|

  D               A             Bm7             F#m

e-----------------------------------------------------------------------|
B---------8-7----------------7----------3-2-----------------------------|
G--------7----7-----------6------------2----4-2-------------------------|
D----7--7-------7--------5---------4--4-----------------2--4------------|
A-5------------------7--7-------2------------------4---4----------------|
E-----------------5-----------------------------2-----2-----------------|

  G               D               G               A7

e-------------------------3-2-0-----------------0-------------0---------|
B---------3-2-0----------3------3---------0-2-3-----------2-3-----------|
G--------0------2----2--2----------------0---------------0--------------|
D-------0---------0---------------------0------------2--2---------------|
A----x-------------------------------x------------0---------------------|
E-3-------------------------------3-------------------------------------|

  D                A7          Bm7              F#m

e-2--2-2-2h3p2-2-2------------------------------2--2-2-2--2-2-----------|
B-3--3-3-3-----3-3-2--2-2-2--3-3--3-3-3-----3-3-2--2-2-2--2-2-----------|
G-2--2-2-2-----2-2-0--0-0-0----2--2-2-2h4p2-2-2-2--2-2-2--2-2-----------|
D-0--0-0-0-----0-0-2--2-2-2----4--4-4-4-----4-4-4--4-4-4--4-4-----------|
A------------------0--0-0-0----2--2-2-2-----2-2-4--4-4-4--4-4-----------|
E-----------------------------------------------2--2-2-2--2-2-----------|

  G             D                G              A7

e---------------2--2-2-2h3p2-2-2--------------0-0--0-0-0---0------------|
B-3--3-3-3--3-3-3--3-3-3-----3-3-3--3-3-0-2-3---2--2-2-2-3--------------|
G-0--0-0-0--0-0-2--2-2-2-----2-2-0--0-0-0-------0--0-0-0----------------|
D-0--0-0-0--0-0-0--0-0-0-----0-0-0--0-0-0-------2--2-2-2----------------|
A-x--x-x-x--x-x------------------x--x-x-x-------0--0-0-0----------------|
E-3--3-3-3--3-3------------------3--3-3-3-------------------------------|
Suggest correction
Give kudos to tab author, rate the tab!
1 2 3 4 5
comments
print report bad tab
guest
You may want to rate the tab now too:
select rating
Please do not post tabs as comments. Select "correction" instead!